  0
SECTION
  2
HEADER
  9
$ACADVER
  1
AC1015
  9
$ACADMAINTVER
 70
     6
  9
$DWGCODEPAGE
  3
ANSI_1254
  9
$INSBASE
 10
0.0
 20
0.0
 30
0.0
  9
$EXTMIN
 10
0.0
 20
0.0
 30
0.0
  9
$EXTMAX
 10
279.4
 20
215.9
 30
0.0
  9
$LIMMIN
 10
0.0
 20
0.0
  9
$LIMMAX
 10
279.4
 20
215.9
  9
$ORTHOMODE
 70
     0
  9
$REGENMODE
 70
     1
  9
$FILLMODE
 70
     1
  9
$QTEXTMODE
 70
     0
  9
$MIRRTEXT
 70
     1
  9
$LTSCALE
 40
1.0
  9
$ATTMODE
 70
     1
  9
$TEXTSIZE
 40
3.5
  9
$TRACEWID
 40
1.0
  9
$TEXTSTYLE
  7
Standard
  9
$CLAYER
  8
0
  9
$CELTYPE
  6
ByLayer
  9
$CECOLOR
 62
   256
  9
$CELTSCALE
 40
1.0
  9
$DISPSILH
 70
     0
  9
$DIMSCALE
 40
1.0
  9
$DIMASZ
 40
3.5
  9
$DIMEXO
 40
1.0
  9
$DIMDLI
 40
3.75
  9
$DIMRND
 40
0.0
  9
$DIMDLE
 40
0.0
  9
$DIMEXE
 40
1.0
  9
$DIMTP
 40
0.0
  9
$DIMTM
 40
0.0
  9
$DIMTXT
 40
3.5
  9
$DIMCEN
 40
2.5
  9
$DIMTSZ
 40
0.0
  9
$DIMTOL
 70
     0
  9
$DIMLIM
 70
     0
  9
$DIMTIH
 70
     1
  9
$DIMTOH
 70
     1
  9
$DIMSE1
 70
     0
  9
$DIMSE2
 70
     0
  9
$DIMTAD
 70
     1
  9
$DIMZIN
 70
     0
  9
$DIMBLK
  1

  9
$DIMASO
 70
     1
  9
$DIMSHO
 70
     1
  9
$DIMPOST
  1

  9
$DIMAPOST
  1

  9
$DIMALT
 70
     0
  9
$DIMALTD
 70
     3
  9
$DIMALTF
 40
0.0393700787
  9
$DIMLFAC
 40
1.0
  9
$DIMTOFL
 70
     1
  9
$DIMTVP
 40
0.0
  9
$DIMTIX
 70
     0
  9
$DIMSOXD
 70
     0
  9
$DIMSAH
 70
     0
  9
$DIMBLK1
  1

  9
$DIMBLK2
  1

  9
$DIMSTYLE
  2
ISO-25
  9
$DIMCLRD
 70
     0
  9
$DIMCLRE
 70
     0
  9
$DIMCLRT
 70
     0
  9
$DIMTFAC
 40
1.0
  9
$DIMGAP
 40
1.524
  9
$DIMJUST
 70
     0
  9
$DIMSD1
 70
     0
  9
$DIMSD2
 70
     0
  9
$DIMTOLJ
 70
     0
  9
$DIMTZIN
 70
     0
  9
$DIMALTZ
 70
     0
  9
$DIMALTTZ
 70
     0
  9
$DIMUPT
 70
     0
  9
$DIMDEC
 70
     2
  9
$DIMTDEC
 70
     2
  9
$DIMALTU
 70
     2
  9
$DIMALTTD
 70
     3
  9
$DIMTXSTY
  7
Standard
  9
$DIMAUNIT
 70
     0
  9
$DIMADEC
 70
     2
  9
$DIMALTRND
 40
0.0
  9
$DIMAZIN
 70
     0
  9
$DIMDSEP
 70
    44
  9
$DIMATFIT
 70
     3
  9
$DIMFRAC
 70
     0
  9
$DIMLDRBLK
  1

  9
$DIMLUNIT
 70
     2
  9
$DIMLWD
 70
    -2
  9
$DIMLWE
 70
    -2
  9
$DIMTMOVE
 70
     0
  9
$LUNITS
 70
     2
  9
$LUPREC
 70
     2
  9
$SKETCHINC
 40
1.0
  9
$FILLETRAD
 40
10.0
  9
$AUNITS
 70
     0
  9
$AUPREC
 70
     2
  9
$MENU
  1
.
  9
$ELEVATION
 40
0.0
  9
$PELEVATION
 40
0.0
  9
$THICKNESS
 40
0.0
  9
$LIMCHECK
 70
     0
  9
$CHAMFERA
 40
0.0
  9
$CHAMFERB
 40
0.0
  9
$CHAMFERC
 40
0.0
  9
$CHAMFERD
 40
0.0
  9
$SKPOLY
 70
     0
  9
$TDCREATE
 40
2459741.603147986
  9
$TDUCREATE
 40
2459741.478147986
  9
$TDUPDATE
 40
2459741.60314816
  9
$TDUUPDATE
 40
2459741.47814816
  9
$TDINDWG
 40
0.0000000116
  9
$TDUSRTIMER
 40
0.0000000116
  9
$USRTIMER
 70
     1
  9
$ANGBASE
 50
0.0
  9
$ANGDIR
 70
     0
  9
$PDMODE
 70
     0
  9
$PDSIZE
 40
-1.0
  9
$PLINEWID
 40
0.0
  9
$SPLFRAME
 70
     0
  9
$SPLINETYPE
 70
     6
  9
$SPLINESEGS
 70
     8
  9
$HANDSEED
  5
12E
  9
$SURFTAB1
 70
     6
  9
$SURFTAB2
 70
     6
  9
$SURFTYPE
 70
     6
  9
$SURFU
 70
     6
  9
$SURFV
 70
     6
  9
$UCSBASE
  2

  9
$UCSNAME
  2

  9
$UCSORG
 10
0.0
 20
0.0
 30
0.0
  9
$UCSXDIR
 10
1.0
 20
0.0
 30
0.0
  9
$UCSYDIR
 10
0.0
 20
1.0
 30
0.0
  9
$UCSORTHOREF
  2

  9
$UCSORTHOVIEW
 70
     0
  9
$UCSORGTOP
 10
0.0
 20
0.0
 30
0.0
  9
$UCSORGBOTTOM
 10
0.0
 20
0.0
 30
0.0
  9
$UCSORGLEFT
 10
0.0
 20
0.0
 30
0.0
  9
$UCSORGRIGHT
 10
0.0
 20
0.0
 30
0.0
  9
$UCSORGFRONT
 10
0.0
 20
0.0
 30
0.0
  9
$UCSORGBACK
 10
0.0
 20
0.0
 30
0.0
  9
$PUCSBASE
  2

  9
$PUCSNAME
  2

  9
$PUCSORG
 10
0.0
 20
0.0
 30
0.0
  9
$PUCSXDIR
 10
1.0
 20
0.0
 30
0.0
  9
$PUCSYDIR
 10
0.0
 20
1.0
 30
0.0
  9
$PUCSORTHOREF
  2

  9
$PUCSORTHOVIEW
 70
     0
  9
$PUCSORGTOP
 10
0.0
 20
0.0
 30
0.0
  9
$PUCSORGBOTTOM
 10
0.0
 20
0.0
 30
0.0
  9
$PUCSORGLEFT
 10
0.0
 20
0.0
 30
0.0
  9
$PUCSORGRIGHT
 10
0.0
 20
0.0
 30
0.0
  9
$PUCSORGFRONT
 10
0.0
 20
0.0
 30
0.0
  9
$PUCSORGBACK
 10
0.0
 20
0.0
 30
0.0
  9
$USERI1
 70
     0
  9
$USERI2
 70
     0
  9
$USERI3
 70
     0
  9
$USERI4
 70
     0
  9
$USERI5
 70
     0
  9
$USERR1
 40
0.0
  9
$USERR2
 40
0.0
  9
$USERR3
 40
0.0
  9
$USERR4
 40
0.0
  9
$USERR5
 40
0.0
  9
$WORLDVIEW
 70
     1
  9
$SHADEDGE
 70
     3
  9
$SHADEDIF
 70
    70
  9
$TILEMODE
 70
     1
  9
$MAXACTVP
 70
    64
  9
$PINSBASE
 10
0.0
 20
0.0
 30
0.0
  9
$PLIMCHECK
 70
     0
  9
$PEXTMIN
 10
1.0000000000E+20
 20
1.0000000000E+20
 30
1.0000000000E+20
  9
$PEXTMAX
 10
-1.0000000000E+20
 20
-1.0000000000E+20
 30
-1.0000000000E+20
  9
$PLIMMIN
 10
0.0
 20
0.0
  9
$PLIMMAX
 10
420.0
 20
297.0
  9
$UNITMODE
 70
     0
  9
$VISRETAIN
 70
     1
  9
$PLINEGEN
 70
     0
  9
$PSLTSCALE
 70
     1
  9
$TREEDEPTH
 70
  3020
  9
$CMLSTYLE
  2
Standard
  9
$CMLJUST
 70
     0
  9
$CMLSCALE
 40
20.0
  9
$PROXYGRAPHICS
 70
     1
  9
$MEASUREMENT
 70
     1
  9
$CELWEIGHT
370
    -1
  9
$ENDCAPS
280
     0
  9
$JOINSTYLE
280
     0
  9
$LWDISPLAY
290
     1
  9
$INSUNITS
 70
     4
  9
$HYPERLINKBASE
  1

  9
$STYLESHEET
  1

  9
$XEDIT
290
     1
  9
$CEPSNTYPE
380
     0
  9
$PSTYLEMODE
290
     1
  9
$FINGERPRINTGUID
  2
{3ee64f2a-be87-4b63-856b-a174783a2512}
  9
$VERSIONGUID
  2
{FAEB1C32-E019-11D5-929B-00C0DF256EC4}
  9
$EXTNAMES
290
     1
  9
$PSVPSCALE
 40
0.0
  9
$OLESTARTUP
290
     0
  0
ENDSEC
  0
SECTION
  2
CLASSES
  0
CLASS
  1
ACDBDICTIONARYWDFLT
  2
AcDbDictionaryWithDefault
  3
ObjectDBX Classes
 90
        0
280
     0
281
     0
  0
CLASS
  1
VISUALSTYLE
  2
AcDbVisualStyle
  3
ObjectDBX Classes
 90
     4095
280
     0
281
     0
  0
CLASS
  1
MATERIAL
  2
AcDbMaterial
  3
ObjectDBX Classes
 90
     1153
280
     0
281
     0
  0
CLASS
  1
SCALE
  2
AcDbScale
  3
ObjectDBX Classes
 90
     1153
280
     0
281
     0
  0
CLASS
  1
TABLESTYLE
  2
AcDbTableStyle
  3
ObjectDBX Classes
 90
     4095
280
     0
281
     0
  0
CLASS
  1
MLEADERSTYLE
  2
AcDbMLeaderStyle
  3
ACDB_MLEADERSTYLE_CLASS
 90
     4095
280
     0
281
     0
  0
CLASS
  1
SUN
  2
AcDbSun
  3
SCENEOE
 90
     1153
280
     0
281
     0
  0
CLASS
  1
ACDBPLACEHOLDER
  2
AcDbPlaceHolder
  3
ObjectDBX Classes
 90
        0
280
     0
281
     0
  0
CLASS
  1
LAYOUT
  2
AcDbLayout
  3
ObjectDBX Classes
 90
        0
280
     0
281
     0
  0
ENDSEC
  0
SECTION
  2
TABLES
  0
TABLE
  2
VPORT
  5
8
330
0
100
AcDbSymbolTable
 70
     1
  0
VPORT
  5
29
330
8
100
AcDbSymbolTableRecord
100
AcDbViewportTableRecord
  2
*Active
 70
     0
 10
0.0
 20
0.0
 11
1.0
 21
1.0
 12
139.7
 22
107.95
 13
0.0
 23
0.0
 14
10.0
 24
10.0
 15
10.0
 25
10.0
 16
0.0
 26
0.0
 36
1.0
 17
0.0
 27
0.0
 37
0.0
 40
215.9
 41
1.2941176471
 42
50.0
 43
0.0
 44
0.0
 50
0.0
 51
0.0
 71
     0
 72
  2000
 73
     1
 74
     3
 75
     0
 76
     0
 77
     0
 78
     0
281
     0
 65
     1
110
0.0
120
0.0
130
0.0
111
1.0
121
0.0
131
0.0
112
0.0
122
1.0
132
0.0
 79
     0
146
0.0
  0
ENDTAB
  0
TABLE
  2
LTYPE
  5
5
330
0
100
AcDbSymbolTable
 70
     6
  0
LTYPE
  5
14
330
5
100
AcDbSymbolTableRecord
100
AcDbLinetypeTableRecord
  2
ByBlock
 70
     0
  3

 72
    65
 73
     0
 40
0.0
  0
LTYPE
  5
15
330
5
100
AcDbSymbolTableRecord
100
AcDbLinetypeTableRecord
  2
ByLayer
 70
     0
  3

 72
    65
 73
     0
 40
0.0
  0
LTYPE
  5
16
330
5
100
AcDbSymbolTableRecord
100
AcDbLinetypeTableRecord
  2
Continuous
 70
     0
  3
Solid line
 72
    65
 73
     0
 40
0.0
  0
LTYPE
  5
6E
330
5
100
AcDbSymbolTableRecord
100
AcDbLinetypeTableRecord
  2
HIDDEN
 70
     0
  3
Hidden __ __ __ __ __ __ __ __ __ __ __ __ __ __
 72
    65
 73
     2
 40
1.905
 49
1.27
 74
     0
 49
-0.635
 74
     0
  0
LTYPE
  5
6F
330
5
100
AcDbSymbolTableRecord
100
AcDbLinetypeTableRecord
  2
PHANTOM
 70
     0
  3
Phantom ______  __  __  ______  __  __  ______
 72
    65
 73
     6
 40
12.7
 49
6.35
 74
     0
 49
-1.27
 74
     0
 49
1.27
 74
     0
 49
-1.27
 74
     0
 49
1.27
 74
     0
 49
-1.27
 74
     0
  0
LTYPE
  5
70
330
5
100
AcDbSymbolTableRecord
100
AcDbLinetypeTableRecord
  2
CENTER
 70
     0
  3
Center ____ _ ____ _ ____ _ ____ _ ____ _ ____
 72
    65
 73
     4
 40
10.16
 49
6.35
 74
     0
 49
-1.27
 74
     0
 49
1.27
 74
     0
 49
-1.27
 74
     0
  0
LTYPE
  5
71
330
5
100
AcDbSymbolTableRecord
100
AcDbLinetypeTableRecord
  2
CENTERX2
 70
     0
  3
Center (2x) ________  __  ________  __  _____
 72
    65
 73
     4
 40
20.32
 49
12.7
 74
     0
 49
-2.54
 74
     0
 49
2.54
 74
     0
 49
-2.54
 74
     0
  0
LTYPE
  5
72
330
5
100
AcDbSymbolTableRecord
100
AcDbLinetypeTableRecord
  2
DOT2
 70
     0
  3
Dot (.5x) ........................................
 72
    65
 73
     2
 40
0.635
 49
0.0
 74
     0
 49
-0.635
 74
     0
  0
ENDTAB
  0
TABLE
  2
LAYER
  5
2
330
0
100
AcDbSymbolTable
 70
    17
  0
LAYER
  5
10
330
2
100
AcDbSymbolTableRecord
100
AcDbLayerTableRecord
  2
0
 70
     0
 62
     7
  6
Continuous
370
    -3
390
F
  0
LAYER
  5
73
330
2
100
AcDbSymbolTableRecord
100
AcDbLayerTableRecord
  2
FORMAT
 70
     0
 62
     7
  6
Continuous
370
    -3
390
F
  0
LAYER
  5
74
330
2
100
AcDbSymbolTableRecord
100
AcDbLayerTableRecord
  2
YARDIMCI_GEOMETRI
 70
     0
 62
    -6
  6
Continuous
290
     0
370
    -3
390
F
  0
LAYER
  5
75
330
2
100
AcDbSymbolTableRecord
100
AcDbLayerTableRecord
  2
SAYFA_CERCEVESI
 70
     0
 62
     7
  6
Continuous
370
    25
390
F
  0
LAYER
  5
76
330
2
100
AcDbSymbolTableRecord
100
AcDbLayerTableRecord
  2
ANTET
 70
     0
 62
     7
  6
Continuous
370
    -3
390
F
  0
LAYER
  5
77
330
2
100
AcDbSymbolTableRecord
100
AcDbLayerTableRecord
  2
OLCU
 70
     0
 62
   150
  6
Continuous
370
    -3
390
F
  0
LAYER
  5
78
330
2
100
AcDbSymbolTableRecord
100
AcDbLayerTableRecord
  2
METIN
 70
     0
 62
    96
  6
Continuous
370
    -3
390
F
  0
LAYER
  5
79
330
2
100
AcDbSymbolTableRecord
100
AcDbLayerTableRecord
  2
BALON
 70
     0
 62
     5
  6
Continuous
370
    -3
390
F
  0
LAYER
  5
7A
330
2
100
AcDbSymbolTableRecord
100
AcDbLayerTableRecord
  2
VURGU
 70
     0
 62
     7
  6
Continuous
370
    -3
390
F
  0
LAYER
  5
7B
330
2
100
AcDbSymbolTableRecord
100
AcDbLayerTableRecord
  2
SILIK
 70
     0
 62
     7
  6
Continuous
370
    -3
390
F
  0
LAYER
  5
7C
330
2
100
AcDbSymbolTableRecord
100
AcDbLayerTableRecord
  2
MODEL
 70
     0
 62
     7
  6
Continuous
370
    -3
390
F
  0
LAYER
  5
7D
330
2
100
AcDbSymbolTableRecord
100
AcDbLayerTableRecord
  2
DETAYLANDıRMA
 70
     0
 62
   190
  6
Continuous
370
    -3
390
F
  0
LAYER
  5
7E
330
2
100
AcDbSymbolTableRecord
100
AcDbLayerTableRecord
  2
TOLERANS
 70
     0
 62
   230
  6
Continuous
370
    -3
390
F
  0
LAYER
  5
7F
330
2
100
AcDbSymbolTableRecord
100
AcDbLayerTableRecord
  2
MERKEZ_CIZGILERI
 70
     0
 62
    30
  6
Continuous
370
    -3
390
F
  0
LAYER
  5
80
330
2
100
AcDbSymbolTableRecord
100
AcDbLayerTableRecord
  2
KESIT-DETAY_CIZGILERI
 70
     0
 62
     7
  6
Continuous
370
    -3
390
F
  0
LAYER
  5
81
330
2
100
AcDbSymbolTableRecord
100
AcDbLayerTableRecord
  2
\U+041E\U+0421\U+0415\U+0412\U+042B\U+0415
 70
     0
 62
     7
  6
Continuous
370
    -3
390
F
  0
LAYER
  5
82
330
2
100
AcDbSymbolTableRecord
100
AcDbLayerTableRecord
  2
\U+0412\U+041E\U+0414\U+042F\U+041D\U+042B\U+0415_\U+0417\U+041D\U+0410\U+041A\U+0418
 70
     0
 62
    11
  6
Continuous
370
    -3
390
F
  0
ENDTAB
  0
TABLE
  2
STYLE
  5
3
330
0
100
AcDbSymbolTable
 70
     1
  0
STYLE
  5
11
330
3
100
AcDbSymbolTableRecord
100
AcDbTextStyleTableRecord
  2
Standard
 70
     0
 40
0.0
 41
1.0
 50
0.0
 71
     0
 42
3.5
  3
txt
  4

  0
ENDTAB
  0
TABLE
  2
VIEW
  5
6
330
0
100
AcDbSymbolTable
 70
     0
  0
ENDTAB
  0
TABLE
  2
UCS
  5
7
330
0
100
AcDbSymbolTable
 70
     0
  0
ENDTAB
  0
TABLE
  2
APPID
  5
9
330
0
100
AcDbSymbolTable
 70
     1
  0
APPID
  5
12
330
9
100
AcDbSymbolTableRecord
100
AcDbRegAppTableRecord
  2
ACAD
 70
     0
  0
ENDTAB
  0
TABLE
  2
DIMSTYLE
  5
A
330
0
100
AcDbSymbolTable
 70
     1
100
AcDbDimStyleTable
  0
DIMSTYLE
105
27
330
A
100
AcDbSymbolTableRecord
100
AcDbDimStyleTableRecord
  2
ISO-25
 70
     0
 41
2.5
 42
0.625
 43
3.75
 44
1.25
 73
     0
 74
     0
 77
     1
 78
     8
140
2.5
141
2.5
143
0.0393700787
147
0.625
171
     3
172
     1
178
     0
271
     2
272
     2
274
     3
278
    44
283
     0
284
     8
340
11
  0
ENDTAB
  0
TABLE
  2
BLOCK_RECORD
  5
1
330
0
100
AcDbSymbolTable
 70
     5
  0
BLOCK_RECORD
  5
1F
330
1
100
AcDbSymbolTableRecord
100
AcDbBlockTableRecord
  2
*Model_Space
340
22
  0
BLOCK_RECORD
  5
1B
330
1
100
AcDbSymbolTableRecord
100
AcDbBlockTableRecord
  2
*Paper_Space
340
1E
  0
BLOCK_RECORD
  5
23
330
1
100
AcDbSymbolTableRecord
100
AcDbBlockTableRecord
  2
*Paper_Space0
340
26
  0
BLOCK_RECORD
  5
AA
330
1
100
AcDbSymbolTableRecord
100
AcDbBlockTableRecord
  2
SW_CENTERMARKSYMBOL_0
340
0
102
{BLKREFS
331
B5
102
}
  0
BLOCK_RECORD
  5
C7
330
1
100
AcDbSymbolTableRecord
100
AcDbBlockTableRecord
  2
SW_CENTERMARKSYMBOL_1
340
0
102
{BLKREFS
331
D2
102
}
  0
BLOCK_RECORD
  5
EB
330
1
100
AcDbSymbolTableRecord
100
AcDbBlockTableRecord
  2
SW_CENTERMARKSYMBOL_2
340
0
102
{BLKREFS
331
F6
102
}
  0
BLOCK_RECORD
  5
107
330
1
100
AcDbSymbolTableRecord
100
AcDbBlockTableRecord
  2
SW_CENTERMARKSYMBOL_3
340
0
102
{BLKREFS
331
112
102
}
  0
ENDTAB
  0
ENDSEC
  0
SECTION
  2
BLOCKS
  0
BLOCK
  5
20
330
1F
100
AcDbEntity
  8
0
100
AcDbBlockBegin
  2
*Model_Space
 70
     0
 10
0.0
 20
0.0
 30
0.0
  3
*Model_Space
  1

  0
ENDBLK
  5
21
330
1F
100
AcDbEntity
  8
0
100
AcDbBlockEnd
  0
BLOCK
  5
1C
330
1B
100
AcDbEntity
 67
     1
  8
0
100
AcDbBlockBegin
  2
*Paper_Space
 70
     0
 10
0.0
 20
0.0
 30
0.0
  3
*Paper_Space
  1

  0
ENDBLK
  5
1D
330
1B
100
AcDbEntity
 67
     1
  8
0
100
AcDbBlockEnd
  0
BLOCK
  5
24
330
23
100
AcDbEntity
  8
0
100
AcDbBlockBegin
  2
*Paper_Space0
 70
     0
 10
0.0
 20
0.0
 30
0.0
  3
*Paper_Space0
  1

  0
ENDBLK
  5
25
330
23
100
AcDbEntity
  8
0
100
AcDbBlockEnd
  0
BLOCK
  5
AB
330
AA
100
AcDbEntity
  8
0
100
AcDbBlockBegin
  2
SW_CENTERMARKSYMBOL_0
 70
     0
 10
0.0
 20
0.0
 30
0.0
  3
SW_CENTERMARKSYMBOL_0
  1

  0
LINE
  5
AD
330
AA
100
AcDbEntity
  8
FORMAT
 62
     0
100
AcDbLine
 10
0.0
 20
0.0
 30
0.0
 11
0.0
 21
2.5
 31
0.0
  0
LINE
  5
AE
330
AA
100
AcDbEntity
  8
FORMAT
 62
     0
100
AcDbLine
 10
0.0
 20
0.0
 30
0.0
 11
-2.5
 21
0.0
 31
0.0
  0
LINE
  5
AF
330
AA
100
AcDbEntity
  8
FORMAT
 62
     0
100
AcDbLine
 10
0.0
 20
0.0
 30
0.0
 11
0.0
 21
-2.5
 31
0.0
  0
LINE
  5
B0
330
AA
100
AcDbEntity
  8
FORMAT
 62
     0
100
AcDbLine
 10
0.0
 20
0.0
 30
0.0
 11
2.5
 21
0.0
 31
0.0
  0
LINE
  5
B1
330
AA
100
AcDbEntity
  8
FORMAT
 62
     0
100
AcDbLine
 10
0.0
 20
5.0
 30
0.0
 11
0.0
 21
24.5
 31
0.0
  0
LINE
  5
B2
330
AA
100
AcDbEntity
  8
FORMAT
 62
     0
100
AcDbLine
 10
-5.0
 20
0.0
 30
0.0
 11
-24.5
 21
0.0
 31
0.0
  0
LINE
  5
B3
330
AA
100
AcDbEntity
  8
FORMAT
 62
     0
100
AcDbLine
 10
0.0
 20
-5.0
 30
0.0
 11
0.0
 21
-24.5
 31
0.0
  0
LINE
  5
B4
330
AA
100
AcDbEntity
  8
FORMAT
 62
     0
100
AcDbLine
 10
5.0
 20
0.0
 30
0.0
 11
24.5
 21
0.0
 31
0.0
  0
ENDBLK
  5
AC
330
AA
100
AcDbEntity
  8
0
100
AcDbBlockEnd
  0
BLOCK
  5
C8
330
C7
100
AcDbEntity
  8
0
100
AcDbBlockBegin
  2
SW_CENTERMARKSYMBOL_1
 70
     0
 10
0.0
 20
0.0
 30
0.0
  3
SW_CENTERMARKSYMBOL_1
  1

  0
LINE
  5
CA
330
C7
100
AcDbEntity
  8
FORMAT
 62
     0
100
AcDbLine
 10
0.0
 20
0.0
 30
0.0
 11
0.0
 21
2.5
 31
0.0
  0
LINE
  5
CB
330
C7
100
AcDbEntity
  8
FORMAT
 62
     0
100
AcDbLine
 10
0.0
 20
0.0
 30
0.0
 11
-2.5
 21
0.0
 31
0.0
  0
LINE
  5
CC
330
C7
100
AcDbEntity
  8
FORMAT
 62
     0
100
AcDbLine
 10
0.0
 20
0.0
 30
0.0
 11
0.0
 21
-2.5
 31
0.0
  0
LINE
  5
CD
330
C7
100
AcDbEntity
  8
FORMAT
 62
     0
100
AcDbLine
 10
0.0
 20
0.0
 30
0.0
 11
2.5
 21
0.0
 31
0.0
  0
LINE
  5
CE
330
C7
100
AcDbEntity
  8
FORMAT
 62
     0
100
AcDbLine
 10
0.0
 20
5.0
 30
0.0
 11
0.0
 21
24.5
 31
0.0
  0
LINE
  5
CF
330
C7
100
AcDbEntity
  8
FORMAT
 62
     0
100
AcDbLine
 10
-5.0
 20
0.0
 30
0.0
 11
-24.5
 21
0.0
 31
0.0
  0
LINE
  5
D0
330
C7
100
AcDbEntity
  8
FORMAT
 62
     0
100
AcDbLine
 10
0.0
 20
-5.0
 30
0.0
 11
0.0
 21
-24.5
 31
0.0
  0
LINE
  5
D1
330
C7
100
AcDbEntity
  8
FORMAT
 62
     0
100
AcDbLine
 10
5.0
 20
0.0
 30
0.0
 11
24.5
 21
0.0
 31
0.0
  0
ENDBLK
  5
C9
330
C7
100
AcDbEntity
  8
0
100
AcDbBlockEnd
  0
BLOCK
  5
EC
330
EB
100
AcDbEntity
  8
0
100
AcDbBlockBegin
  2
SW_CENTERMARKSYMBOL_2
 70
     0
 10
0.0
 20
0.0
 30
0.0
  3
SW_CENTERMARKSYMBOL_2
  1

  0
LINE
  5
EE
330
EB
100
AcDbEntity
  8
FORMAT
 62
     0
100
AcDbLine
 10
0.0
 20
0.0
 30
0.0
 11
0.0
 21
2.5
 31
0.0
  0
LINE
  5
EF
330
EB
100
AcDbEntity
  8
FORMAT
 62
     0
100
AcDbLine
 10
0.0
 20
0.0
 30
0.0
 11
-2.5
 21
0.0
 31
0.0
  0
LINE
  5
F0
330
EB
100
AcDbEntity
  8
FORMAT
 62
     0
100
AcDbLine
 10
0.0
 20
0.0
 30
0.0
 11
0.0
 21
-2.5
 31
0.0
  0
LINE
  5
F1
330
EB
100
AcDbEntity
  8
FORMAT
 62
     0
100
AcDbLine
 10
0.0
 20
0.0
 30
0.0
 11
2.5
 21
0.0
 31
0.0
  0
LINE
  5
F2
330
EB
100
AcDbEntity
  8
FORMAT
 62
     0
100
AcDbLine
 10
0.0
 20
5.0
 30
0.0
 11
0.0
 21
24.5
 31
0.0
  0
LINE
  5
F3
330
EB
100
AcDbEntity
  8
FORMAT
 62
     0
100
AcDbLine
 10
-5.0
 20
0.0
 30
0.0
 11
-24.5
 21
0.0
 31
0.0
  0
LINE
  5
F4
330
EB
100
AcDbEntity
  8
FORMAT
 62
     0
100
AcDbLine
 10
0.0
 20
-5.0
 30
0.0
 11
0.0
 21
-24.5
 31
0.0
  0
LINE
  5
F5
330
EB
100
AcDbEntity
  8
FORMAT
 62
     0
100
AcDbLine
 10
5.0
 20
0.0
 30
0.0
 11
24.5
 21
0.0
 31
0.0
  0
ENDBLK
  5
ED
330
EB
100
AcDbEntity
  8
0
100
AcDbBlockEnd
  0
BLOCK
  5
108
330
107
100
AcDbEntity
  8
0
100
AcDbBlockBegin
  2
SW_CENTERMARKSYMBOL_3
 70
     0
 10
0.0
 20
0.0
 30
0.0
  3
SW_CENTERMARKSYMBOL_3
  1

  0
LINE
  5
10A
330
107
100
AcDbEntity
  8
FORMAT
 62
     0
100
AcDbLine
 10
0.0
 20
0.0
 30
0.0
 11
0.0
 21
2.5
 31
0.0
  0
LINE
  5
10B
330
107
100
AcDbEntity
  8
FORMAT
 62
     0
100
AcDbLine
 10
0.0
 20
0.0
 30
0.0
 11
-2.5
 21
0.0
 31
0.0
  0
LINE
  5
10C
330
107
100
AcDbEntity
  8
FORMAT
 62
     0
100
AcDbLine
 10
0.0
 20
0.0
 30
0.0
 11
0.0
 21
-2.5
 31
0.0
  0
LINE
  5
10D
330
107
100
AcDbEntity
  8
FORMAT
 62
     0
100
AcDbLine
 10
0.0
 20
0.0
 30
0.0
 11
2.5
 21
0.0
 31
0.0
  0
LINE
  5
10E
330
107
100
AcDbEntity
  8
FORMAT
 62
     0
100
AcDbLine
 10
0.0
 20
5.0
 30
0.0
 11
0.0
 21
24.5
 31
0.0
  0
LINE
  5
10F
330
107
100
AcDbEntity
  8
FORMAT
 62
     0
100
AcDbLine
 10
-5.0
 20
0.0
 30
0.0
 11
-24.5
 21
0.0
 31
0.0
  0
LINE
  5
110
330
107
100
AcDbEntity
  8
FORMAT
 62
     0
100
AcDbLine
 10
0.0
 20
-5.0
 30
0.0
 11
0.0
 21
-24.5
 31
0.0
  0
LINE
  5
111
330
107
100
AcDbEntity
  8
FORMAT
 62
     0
100
AcDbLine
 10
5.0
 20
0.0
 30
0.0
 11
24.5
 21
0.0
 31
0.0
  0
ENDBLK
  5
109
330
107
100
AcDbEntity
  8
0
100
AcDbBlockEnd
  0
ENDSEC
  0
SECTION
  2
ENTITIES
  0
LINE
  5
83
330
1F
100
AcDbEntity
  8
0
  6
Continuous
 62
     7
370
    25
100
AcDbLine
 10
109.8028365819
 20
104.5833319601
 30
0.0
 11
109.8028365819
 21
59.0168815063
 31
0.0
  0
LINE
  5
84
330
1F
100
AcDbEntity
  8
0
  6
Continuous
 62
     7
370
    25
100
AcDbLine
 10
153.8028365819
 20
59.0168815063
 30
0.0
 11
153.8028365819
 21
104.5833319601
 31
0.0
  0
ARC
  5
85
330
1F
100
AcDbEntity
  8
0
  6
Continuous
 62
     7
370
    25
100
AcDbCircle
 10
161.8028365819
 20
104.5833319601
 30
0.0
 40
8.0
100
AcDbArc
 50
135.0
 51
180.0
  0
ARC
  5
86
330
1F
100
AcDbEntity
  8
0
  6
Continuous
 62
     7
370
    25
100
AcDbCircle
 10
161.8028365819
 20
104.5833319601
 30
0.0
 40
52.00000000000001
100
AcDbArc
 50
135.0
 51
180.0
  0
LINE
  5
87
330
1F
100
AcDbEntity
  8
0
  6
Continuous
 62
     7
370
    25
100
AcDbLine
 10
157.2536300707
 20
173.5732306924
 30
0.0
 11
125.0332839602
 21
141.3528845818
 31
0.0
  0
LINE
  5
88
330
1F
100
AcDbEntity
  8
0
  6
Continuous
 62
     7
370
    25
100
AcDbLine
 10
156.1459823324
 20
110.2401862096
 30
0.0
 11
188.3663284429
 21
142.4605323202
 31
0.0
  0
CIRCLE
  5
89
330
1F
100
AcDbEntity
  8
0
  6
Continuous
 62
     7
370
    25
100
AcDbCircle
 10
131.8028365819
 20
69.0168815063
 30
0.0
 40
5.0
  0
CIRCLE
  5
8A
330
1F
100
AcDbEntity
  8
0
  6
Continuous
 62
     7
370
    25
100
AcDbCircle
 10
131.8028365819
 20
69.0168815063
 30
0.0
 40
7.0
  0
CIRCLE
  5
8B
330
1F
100
AcDbEntity
  8
0
  6
Continuous
 62
     7
370
    25
100
AcDbCircle
 10
165.7389114449
 20
150.9458136944
 30
0.0
 40
7.0
  0
CIRCLE
  5
8C
330
1F
100
AcDbEntity
  8
0
  6
Continuous
 62
     7
370
    25
100
AcDbCircle
 10
165.7389114449
 20
150.9458136944
 30
0.0
 40
5.0
  0
LINE
  5
8D
330
1F
100
AcDbEntity
  8
0
  6
Continuous
 62
     7
370
    25
100
AcDbLine
 10
131.8028365819
 20
59.0168815063
 30
0.0
 11
153.8028365819
 21
59.0168815063
 31
0.0
  0
LINE
  5
8E
330
1F
100
AcDbEntity
  8
0
  6
Continuous
 62
     7
370
    25
100
AcDbLine
 10
109.8028365819
 20
59.0168815063
 30
0.0
 11
131.8028365819
 21
59.0168815063
 31
0.0
  0
LINE
  5
8F
330
1F
100
AcDbEntity
  8
0
  6
Continuous
 62
     7
370
    25
100
AcDbLine
 10
172.8099792568
 20
158.0168815063
 30
0.0
 11
188.3663284429
 21
142.4605323202
 31
0.0
  0
LINE
  5
90
330
1F
100
AcDbEntity
  8
0
  6
Continuous
 62
     7
370
    25
100
AcDbLine
 10
157.2536300707
 20
173.5732306924
 30
0.0
 11
172.8099792568
 21
158.0168815063
 31
0.0
  0
LINE
  5
91
330
1F
100
AcDbEntity
  8
0
  6
Continuous
 62
     1
370
    25
100
AcDbLine
 10
131.8028365819
 20
104.5833319601
 30
0.0
 11
153.8028365819
 21
104.5833319601
 31
0.0
  0
LINE
  5
92
330
1F
100
AcDbEntity
  8
0
  6
Continuous
 62
     1
370
    25
100
AcDbLine
 10
109.8028365819
 20
104.5833319601
 30
0.0
 11
131.8028365819
 21
104.5833319601
 31
0.0
  0
LINE
  5
93
330
1F
100
AcDbEntity
  8
0
  6
Continuous
 62
     1
370
    25
100
AcDbLine
 10
140.5896331463
 20
125.7965353957
 30
0.0
 11
156.1459823324
 21
110.2401862096
 31
0.0
  0
LINE
  5
94
330
1F
100
AcDbEntity
  8
0
  6
Continuous
 62
     1
370
    25
100
AcDbLine
 10
125.0332839602
 20
141.3528845818
 30
0.0
 11
140.5896331463
 21
125.7965353957
 31
0.0
  0
LINE
  5
95
330
1F
100
AcDbEntity
  8
0
  6
Continuous
 62
     7
370
    25
100
AcDbLine
 10
-43.6341156487
 20
143.9458136944
 30
0.0
 11
-43.6341156487
 21
125.7965353957
 31
0.0
  0
LINE
  5
96
330
1F
100
AcDbEntity
  8
0
  6
Continuous
 62
     7
370
    25
100
AcDbLine
 10
-43.6341156487
 20
158.0168815063
 30
0.0
 11
-43.6341156487
 21
155.8792028917
 31
0.0
  0
LINE
  5
97
330
1F
100
AcDbEntity
  8
0
  6
Continuous
 62
     7
370
    25
100
AcDbLine
 10
0.3658843513
 20
125.7965353957
 30
0.0
 11
0.3658843513
 21
158.0168815063
 31
0.0
  0
LINE
  5
98
330
1F
100
AcDbEntity
  8
0
  6
Continuous
 62
     7
370
    25
100
AcDbLine
 10
-43.6341156487
 20
157.9458136944
 30
0.0
 11
-58.6341156487
 21
157.9458136944
 31
0.0
  0
LINE
  5
99
330
1F
100
AcDbEntity
  8
0
  6
Continuous
 62
     7
370
    25
100
AcDbLine
 10
-58.6341156487
 20
143.9458136944
 30
0.0
 11
-43.0698139759
 21
143.9458136944
 31
0.0
  0
LINE
  5
9A
330
1F
100
AcDbEntity
  8
0
  6
Continuous
 62
     7
370
    25
100
AcDbLine
 10
-43.6341156487
 20
125.7965353957
 30
0.0
 11
-43.6341156487
 21
104.5833319601
 31
0.0
  0
LINE
  5
9B
330
1F
100
AcDbEntity
  8
0
  6
Continuous
 62
     7
370
    25
100
AcDbLine
 10
0.3658843513
 20
104.5833319601
 30
0.0
 11
0.3658843513
 21
125.7965353957
 31
0.0
  0
LINE
  5
9C
330
1F
100
AcDbEntity
  8
0
  6
Continuous
 62
     7
370
    25
100
AcDbLine
 10
-43.6341156487
 20
62.0419473712
 30
0.0
 11
-43.6341156487
 21
59.0168815063
 31
0.0
  0
LINE
  5
9D
330
1F
100
AcDbEntity
  8
0
  6
Continuous
 62
     7
370
    25
100
AcDbLine
 10
-43.6341156487
 20
104.5833319601
 30
0.0
 11
-43.6341156487
 21
75.9947742123
 31
0.0
  0
LINE
  5
9E
330
1F
100
AcDbEntity
  8
0
  6
Continuous
 62
     7
370
    25
100
AcDbLine
 10
0.3658843513
 20
59.0168815063
 30
0.0
 11
0.3658843513
 21
104.5833319601
 31
0.0
  0
LINE
  5
9F
330
1F
100
AcDbEntity
  8
0
  6
Continuous
 62
     7
370
    25
100
AcDbLine
 10
-43.6270936131
 20
76.0168815063
 30
0.0
 11
-58.6341156487
 21
76.0168815063
 31
0.0
  0
LINE
  5
A0
330
1F
100
AcDbEntity
  8
0
  6
Continuous
 62
     7
370
    25
100
AcDbLine
 10
-58.6341156487
 20
62.0168815063
 30
0.0
 11
-43.6261537279
 21
62.0168815063
 31
0.0
  0
LWPOLYLINE
  5
A1
330
1F
100
AcDbEntity
  8
0
  6
Continuous
 62
     7
370
    25
100
AcDbPolyline
 90
       92
 70
   128
 43
0.0
 10
-43.6341156487
 20
158.0168815063
 10
-43.5816956394
 20
156.9436311732
 10
-43.4246854165
 20
155.8754953666
 10
-43.1638332052
 20
154.8175642403
 10
-42.8003820853
 20
153.7748793176
 10
-42.3360640667
 20
152.7524094672
 10
-41.7730918363
 20
151.7550272235
 10
-41.1141482131
 20
150.7874855671
 10
-40.3623733636
 20
149.8543952745
 10
-39.5213498373
 20
148.9602029461
 10
-38.5950854942
 20
148.1091698153
 10
-37.5879944059
 20
147.3053514428
 10
-36.5048758199
 20
146.5525783889
 10
-35.3508912896
 20
145.8544379603
 10
-34.1315400768
 20
145.2142571139
 10
-32.8526329453
 20
144.635086603
 10
-31.52026447
 20
144.1196864388
 10
-30.1407839934
 20
143.6705127379
 10
-28.7207653683
 20
143.2897060175
 10
-27.26697563
 20
142.979080995
 10
-25.7863427487
 20
142.7401179401
 10
-24.2859226143
 20
142.5739556206
 10
-22.7728654122
 20
142.4813858757
 10
-21.2543815488
 20
142.4628498422
 10
-19.7377072914
 20
142.5184358529
 10
-18.2300702833
 20
142.647879015
 10
-16.7386551017
 20
142.8505624731
 10
-15.2705690189
 20
143.125520348
 10
-13.8328081338
 20
143.4714423404
 10
-12.4322240317
 20
143.8866799743
 10
-11.0754911336
 20
144.3692544534
 10
-9.7690748897
 20
144.9168660905
 10
-8.5192009684
 20
145.5269052667
 10
-7.331825588
 20
146.1964648677
 10
-6.212607133
 20
146.9223541369
 10
-5.166879189
 20
147.7011138814
 10
-4.1996251258
 20
148.5290329565
 10
-3.3154543496
 20
149.4021659506
 10
-2.5185803368
 20
150.3163519875
 10
-1.8128005549
 20
151.2672345544
 10
-1.201478366
 20
152.2502822627
 10
-0.6875269987
 20
153.2608104425
 10
-0.2733956654
 20
154.2940034669
 10
0.0389421096
 20
155.3449377005
 10
0.2479978946
 20
156.4086049631
 10
0.3527754434
 20
157.4799363959
 10
0.3527754434
 20
158.5538266166
 10
0.2479978946
 20
159.6251580494
 10
0.0389421096
 20
160.688825312
 10
-0.2733956654
 20
161.7397595456
 10
-0.6875269987
 20
162.77295257
 10
-1.201478366
 20
163.7834807498
 10
-1.8128005549
 20
164.7665284581
 10
-2.5185803368
 20
165.717411025
 10
-3.3154543496
 20
166.6315970619
 10
-4.1996251258
 20
167.504730056
 10
-5.166879189
 20
168.3326491311
 10
-6.212607133
 20
169.1114088756
 10
-7.331825588
 20
169.8372981448
 10
-8.5192009684
 20
170.5068577458
 10
-9.7690748897
 20
171.116896922
 10
-11.0754911336
 20
171.6645085591
 10
-12.4322240317
 20
172.1470830382
 10
-13.8328081338
 20
172.5623206722
 10
-15.2705690189
 20
172.9082426645
 10
-16.7386551017
 20
173.1832005394
 10
-18.2300702833
 20
173.3858839975
 10
-19.7377072914
 20
173.5153271596
 10
-21.2543815488
 20
173.5709131703
 10
-22.7728654122
 20
173.5523771369
 10
-24.2859226143
 20
173.4598073919
 10
-25.7863427487
 20
173.2936450724
 10
-27.26697563
 20
173.0546820175
 10
-28.7207653683
 20
172.744056995
 10
-30.1407839934
 20
172.3632502746
 10
-31.52026447
 20
171.9140765737
 10
-32.8526329453
 20
171.3986764095
 10
-34.1315400768
 20
170.8195058986
 10
-35.3508912896
 20
170.1793250522
 10
-36.5048758199
 20
169.4811846236
 10
-37.5879944059
 20
168.7284115697
 10
-38.5950854942
 20
167.9245931972
 10
-39.5213498373
 20
167.0735600664
 10
-40.3623733636
 20
166.179367738
 10
-41.1141482131
 20
165.2462774454
 10
-41.7730918363
 20
164.278735789
 10
-42.3360640667
 20
163.2813535453
 10
-42.8003820853
 20
162.2588836949
 10
-43.1638332052
 20
161.2161987722
 10
-43.4246854165
 20
160.1582676459
 10
-43.5816956394
 20
159.0901318394
 10
-43.6341156487
 20
158.0168815063
  0
LWPOLYLINE
  5
A2
330
1F
100
AcDbEntity
  8
0
  6
Continuous
 62
     7
370
    25
100
AcDbPolyline
 90
       79
 70
   128
 43
0.0
 10
-37.6341156487
 20
158.0168815063
 10
-37.5822325789
 20
158.9272568086
 10
-37.4269198509
 20
159.8317279778
 10
-37.1691847275
 20
160.7244291712
 10
-36.8106987199
 20
161.5995708791
 10
-36.3537867473
 20
162.4514774716
 10
-35.8014120592
 20
163.2746240075
 10
-35.1571570174
 20
164.0636720657
 10
-34.4251998632
 20
164.8135043669
 10
-33.6102876195
 20
165.5192579607
 10
-32.7177053049
 20
166.1763557643
 10
-31.7532416583
 20
166.7805362462
 10
-30.7231515964
 20
167.3278810643
 10
-29.6341156487
 20
167.8148404774
 10
-28.4931966312
 20
168.2382563667
 10
-27.3077938414
 20
168.5953827178
 10
-26.0855950714
 20
168.8839034293
 10
-24.8345267491
 20
169.1019473335
 10
-23.5627025328
 20
169.2481003322
 10
-22.2783706905
 20
169.321414567
 10
-20.989860607
 20
169.321414567
 10
-19.7055287646
 20
169.2481003322
 10
-18.4337045483
 20
169.1019473335
 10
-17.1826362261
 20
168.8839034293
 10
-15.960437456
 20
168.5953827178
 10
-14.7750346663
 20
168.2382563667
 10
-13.6341156487
 20
167.8148404774
 10
-12.545079701
 20
167.3278810643
 10
-11.5149896392
 20
166.7805362462
 10
-10.5505259926
 20
166.1763557643
 10
-9.657943678
 20
165.5192579607
 10
-8.8430314343
 20
164.8135043669
 10
-8.11107428
 20
164.0636720657
 10
-7.4668192383
 20
163.2746240075
 10
-6.9144445502
 20
162.4514774716
 10
-6.4575325776
 20
161.5995708791
 10
-6.0990465699
 20
160.7244291712
 10
-5.8413114465
 20
159.8317279778
 10
-5.6859987186
 20
158.9272568086
 10
-5.6341156487
 20
158.0168815063
 10
-5.6859987186
 20
157.1065062039
 10
-5.8413114465
 20
156.2020350347
 10
-6.0990465699
 20
155.3093338413
 10
-6.4575325776
 20
154.4341921334
 10
-6.9144445502
 20
153.582285541
 10
-7.4668192383
 20
152.759139005
 10
-8.11107428
 20
151.9700909468
 10
-8.8430314343
 20
151.2202586457
 10
-9.657943678
 20
150.5145050519
 10
-10.5505259926
 20
149.8574072483
 10
-11.5149896392
 20
149.2532267663
 10
-12.545079701
 20
148.7058819482
 10
-13.6341156487
 20
148.2189225351
 10
-14.7750346663
 20
147.7955066458
 10
-15.960437456
 20
147.4383802947
 10
-17.1826362261
 20
147.1498595833
 10
-18.4337045483
 20
146.931815679
 10
-19.7055287646
 20
146.7856626804
 10
-20.989860607
 20
146.7123484456
 10
-22.2783706905
 20
146.7123484456
 10
-23.5627025328
 20
146.7856626804
 10
-24.8345267491
 20
146.931815679
 10
-26.0855950714
 20
147.1498595833
 10
-27.3077938414
 20
147.4383802947
 10
-28.4931966312
 20
147.7955066458
 10
-29.6341156487
 20
148.2189225351
 10
-30.7231515964
 20
148.7058819482
 10
-31.7532416583
 20
149.2532267663
 10
-32.7177053049
 20
149.8574072483
 10
-33.6102876195
 20
150.5145050519
 10
-34.4251998632
 20
151.2202586457
 10
-35.1571570174
 20
151.9700909468
 10
-35.8014120592
 20
152.759139005
 10
-36.3537867473
 20
153.582285541
 10
-36.8106987199
 20
154.4341921334
 10
-37.1691847275
 20
155.3093338413
 10
-37.4269198509
 20
156.2020350347
 10
-37.5822325789
 20
157.1065062039
 10
-37.6341156487
 20
158.0168815063
  0
SPLINE
  5
A3
330
1F
100
AcDbEntity
  8
0
  6
Continuous
 62
     7
370
    25
100
AcDbSpline
210
0.0
220
0.0
230
1.0
 70
     8
 71
     3
 72
    22
 73
    18
 74
     0
 42
0.00000001
 43
0.00000001
 40
0.0
 40
0.0
 40
0.0
 40
0.0
 40
0.0338043412817751
 40
0.1054321564359263
 40
0.1791759797673355
 40
0.2499079813523747
 40
0.3228958362305034
 40
0.3903406408740338
 40
0.4597785983911445
 40
0.5267957812941771
 40
0.5956017145508087
 40
0.6655563701404098
 40
0.7374266592533641
 40
0.8092546350540532
 40
0.8832777525481051
 40
0.953072946299233
 40
0.9999999999999999
 40
0.9999999999999999
 40
0.9999999999999999
 40
0.9999999999999999
 10
-43.06981397585267
 20
143.9698580847485
 30
0.0
 10
-43.03972551892927
 20
143.9648738731813
 30
0.0
 10
-42.94588281183963
 20
143.9493286457418
 30
0.0
 10
-42.79059802909804
 20
144.1347997080553
 30
0.0
 10
-42.6334737104203
 20
144.5156820584727
 30
0.0
 10
-42.52483501774358
 20
145.0985872235551
 30
0.0
 10
-42.4807975944064
 20
145.8300154224819
 30
0.0
 10
-42.50259388509453
 20
146.6984079305014
 30
0.0
 10
-42.58319032211465
 20
147.6508896452267
 30
0.0
 10
-42.71402555238242
 20
148.6905245762233
 30
0.0
 10
-42.88027648152966
 20
149.7864686905998
 30
0.0
 10
-43.0688099598185
 20
150.9364931178934
 30
0.0
 10
-43.25853102391611
 20
152.103521415089
 30
0.0
 10
-43.43026869909346
 20
153.2646746822388
 30
0.0
 10
-43.55656392229268
 20
154.3475896377589
 30
0.0
 10
-43.62759694125384
 20
155.2401994667199
 30
0.0
 10
-43.62700727212206
 20
155.69599677791
 30
0.0
 10
-43.62677020133548
 20
155.8792456903137
 30
0.0
  0
LINE
  5
A4
330
1F
100
AcDbEntity
  8
0
  6
Continuous
 62
     7
370
    25
100
AcDbLine
 10
-58.6341156487
 20
157.9458136944
 30
0.0
 11
-58.6341156487
 21
143.9458136944
 31
0.0
  0
LINE
  5
A5
330
1F
100
AcDbEntity
  8
0
  6
Continuous
 62
     7
370
    25
100
AcDbLine
 10
-43.6341156487
 20
59.0168815063
 30
0.0
 11
0.3658843513
 21
59.0168815063
 31
0.0
  0
SPLINE
  5
A6
330
1F
100
AcDbEntity
  8
0
  6
Continuous
 62
     7
370
    25
100
AcDbSpline
210
0.0
220
0.0
230
1.0
 70
     8
 71
     3
 72
    27
 73
    23
 74
     0
 42
0.00000001
 43
0.00000001
 40
0.0
 40
0.0
 40
0.0
 40
0.0
 40
0.0291382637167725
 40
0.0794428053115784
 40
0.131174929167492
 40
0.182158492768473
 40
0.2345035852553048
 40
0.2876556396536588
 40
0.3423091072366371
 40
0.3960056454888649
 40
0.4513909219218303
 40
0.5028590361346028
 40
0.5559169356481638
 40
0.6059084845840301
 40
0.6572730614023506
 40
0.7087715628292228
 40
0.7616431412480021
 40
0.8153020049810915
 40
0.8705342053582661
 40
0.9237347068820094
 40
0.9786166121041663
 40
1.0
 40
1.0
 40
1.0
 40
1.0
 10
-43.62615335670822
 20
62.04194737116745
 30
0.0
 10
-43.62744333404124
 20
62.03787221917652
 30
0.0
 10
-43.63096033900489
 20
62.02676169078754
 30
0.0
 10
-43.57119726153069
 20
62.21545133869253
 30
0.0
 10
-43.46113602441107
 20
62.57644222485545
 30
0.0
 10
-43.30630979680994
 20
63.11768170575534
 30
0.0
 10
-43.12540879092477
 20
63.8146058015483
 30
0.0
 10
-42.93247885069044
 20
64.67007488872187
 30
0.0
 10
-42.75117086566746
 20
65.65730090679163
 30
0.0
 10
-42.60232031287895
 20
66.75956522946406
 30
0.0
 10
-42.50906560090051
 20
67.91149040278587
 30
0.0
 10
-42.48009123352842
 20
69.09230516588869
 30
0.0
 10
-42.51603116935085
 20
70.23169227794033
 30
0.0
 10
-42.61027280953775
 20
71.33377754483918
 30
0.0
 10
-42.74960668491982
 20
72.36139460829031
 30
0.0
 10
-42.92324298229494
 20
73.31683365930263
 30
0.0
 10
-43.11337162322732
 20
74.17012398099665
 30
0.0
 10
-43.3015058439057
 20
74.8998401953182
 30
0.0
 10
-43.46417528291177
 20
75.4679591077905
 30
0.0
 10
-43.57889359889813
 20
75.84315774680486
 30
0.0
 10
-43.63469282325316
 20
76.01870540337138
 30
0.0
 10
-43.6287568839206
 20
76.00001473305805
 30
0.0
 10
-43.62709255552056
 20
75.9947742122785
 30
0.0
  0
LINE
  5
A7
330
1F
100
AcDbEntity
  8
0
  6
Continuous
 62
     7
370
    25
100
AcDbLine
 10
-58.6341156487
 20
76.0168815063
 30
0.0
 11
-58.6341156487
 21
62.0168815063
 31
0.0
  0
LWPOLYLINE
  5
A8
330
1F
100
AcDbEntity
  8
0
  6
Continuous
 62
     1
370
    25
100
AcDbPolyline
 90
       47
 70
   128
 43
0.0
 10
-43.6341156487
 20
125.7965353957
 10
-43.5816956394
 20
124.7232850626
 10
-43.4246854165
 20
123.6551492561
 10
-43.1638332052
 20
122.5972181297
 10
-42.8003820853
 20
121.5545332071
 10
-42.3360640667
 20
120.5320633567
 10
-41.7730918363
 20
119.534681113
 10
-41.1141482131
 20
118.5671394565
 10
-40.3623733636
 20
117.634049164
 10
-39.5213498373
 20
116.7398568355
 10
-38.5950854942
 20
115.8888237048
 10
-37.5879944059
 20
115.0850053322
 10
-36.5048758199
 20
114.3322322784
 10
-35.3508912896
 20
113.6340918498
 10
-34.1315400768
 20
112.9939110034
 10
-32.8526329453
 20
112.4147404925
 10
-31.52026447
 20
111.8993403283
 10
-30.1407839934
 20
111.4501666274
 10
-28.7207653683
 20
111.069359907
 10
-27.26697563
 20
110.7587348845
 10
-25.7863427487
 20
110.5197718296
 10
-24.2859226143
 20
110.3536095101
 10
-22.7728654122
 20
110.2610397651
 10
-21.2543815488
 20
110.2425037317
 10
-19.7377072914
 20
110.2980897423
 10
-18.2300702833
 20
110.4275329045
 10
-16.7386551017
 20
110.6302163625
 10
-15.2705690189
 20
110.9051742375
 10
-13.8328081338
 20
111.2510962298
 10
-12.4322240317
 20
111.6663338638
 10
-11.0754911336
 20
112.1489083428
 10
-9.7690748897
 20
112.6965199799
 10
-8.5192009684
 20
113.3065591562
 10
-7.331825588
 20
113.9761187571
 10
-6.212607133
 20
114.7020080264
 10
-5.166879189
 20
115.4807677709
 10
-4.1996251258
 20
116.308686846
 10
-3.3154543496
 20
117.1818198401
 10
-2.5185803368
 20
118.096005877
 10
-1.8128005549
 20
119.0468884438
 10
-1.201478366
 20
120.0299361522
 10
-0.6875269987
 20
121.040464332
 10
-0.2733956654
 20
122.0736573564
 10
0.0389421096
 20
123.12459159
 10
0.2479978946
 20
124.1882588526
 10
0.3527754434
 20
125.2595902854
 10
0.3658843513
 20
125.7965353957
  0
LINE
  5
A9
330
1F
100
AcDbEntity
  8
0
  6
Continuous
 62
     1
370
    25
100
AcDbLine
 10
-43.6341156487
 20
104.5833319601
 30
0.0
 11
0.3658843513
 21
104.5833319601
 31
0.0
  0
INSERT
  5
B5
330
1F
100
AcDbEntity
  8
FORMAT
 62
     7
100
AcDbBlockReference
  2
SW_CENTERMARKSYMBOL_0
 10
-21.6341156487
 20
121.0168815063
 30
0.0
  0
LINE
  5
B6
330
1F
100
AcDbEntity
  8
0
  6
Continuous
 62
     7
370
    25
100
AcDbLine
 10
138.8028365819
 20
270.7963814193
 30
0.0
 11
138.8028365819
 21
286.9381085072
 31
0.0
  0
LINE
  5
B7
330
1F
100
AcDbEntity
  8
0
  6
Continuous
 62
     7
370
    25
100
AcDbLine
 10
124.8028365819
 20
286.9381085072
 30
0.0
 11
124.8028365819
 21
270.7947621218
 31
0.0
  0
LINE
  5
B8
330
1F
100
AcDbEntity
  8
0
  6
Continuous
 62
     7
370
    25
100
AcDbLine
 10
140.5896331463
 20
271.9381085072
 30
0.0
 11
138.8028365819
 21
271.9381085072
 31
0.0
  0
LINE
  5
B9
330
1F
100
AcDbEntity
  8
0
  6
Continuous
 62
     7
370
    25
100
AcDbLine
 10
131.8028365819
 20
227.9381085072
 30
0.0
 11
140.5896331463
 21
227.9381085072
 31
0.0
  0
LINE
  5
BA
330
1F
100
AcDbEntity
  8
0
  6
Continuous
 62
     7
370
    25
100
AcDbLine
 10
160.8029671997
 20
271.9381085072
 30
0.0
 11
140.5896331463
 21
271.9381085072
 31
0.0
  0
LINE
  5
BB
330
1F
100
AcDbEntity
  8
0
  6
Continuous
 62
     7
370
    25
100
AcDbLine
 10
172.8099792568
 20
271.9381085072
 30
0.0
 11
172.7389114449
 21
271.9381085072
 31
0.0
  0
LINE
  5
BC
330
1F
100
AcDbEntity
  8
0
  6
Continuous
 62
     7
370
    25
100
AcDbLine
 10
140.5896331463
 20
227.9381085072
 30
0.0
 11
172.8099792568
 21
227.9381085072
 31
0.0
  0
LINE
  5
BD
330
1F
100
AcDbEntity
  8
0
  6
Continuous
 62
     7
370
    25
100
AcDbLine
 10
172.7389114449
 20
271.3739815569
 30
0.0
 11
172.7389114449
 21
286.9381085072
 31
0.0
  0
LINE
  5
BE
330
1F
100
AcDbEntity
  8
0
  6
Continuous
 62
     7
370
    25
100
AcDbLine
 10
158.7389114449
 20
286.9381085072
 30
0.0
 11
158.7389114449
 21
271.9381085072
 31
0.0
  0
CIRCLE
  5
BF
330
1F
100
AcDbEntity
  8
0
  6
Continuous
 62
     7
370
    25
100
AcDbCircle
 10
131.8028365819
 20
249.9381085072
 30
0.0
 40
16.0
  0
CIRCLE
  5
C0
330
1F
100
AcDbEntity
  8
0
  6
Continuous
 62
     7
370
    25
100
AcDbCircle
 10
131.8028365819
 20
249.9381085072
 30
0.0
 40
22.0
  0
LINE
  5
C1
330
1F
100
AcDbEntity
  8
0
  6
Continuous
 62
     7
370
    25
100
AcDbLine
 10
138.8028365819
 20
286.9381085072
 30
0.0
 11
124.8028365819
 21
286.9381085072
 31
0.0
  0
LWPOLYLINE
  5
C2
330
1F
100
AcDbEntity
  8
0
  6
Continuous
 62
     7
370
    25
100
AcDbPolyline
 90
       47
 70
   128
 43
0.0
 10
172.8099792568
 20
271.9381085072
 10
173.8832295899
 20
271.8856884978
 10
174.9513653964
 20
271.7286782749
 10
176.0092965228
 20
271.4678260637
 10
177.0519814454
 20
271.1043749438
 10
178.0744512959
 20
270.6400569252
 10
179.0718335396
 20
270.0770846948
 10
180.039375196
 20
269.4181410716
 10
180.9724654885
 20
268.6663662221
 10
181.866657817
 20
267.8253426957
 10
182.7176909477
 20
266.8990783527
 10
183.5215093203
 20
265.8919872644
 10
184.2742823741
 20
264.8088686784
 10
184.9724228028
 20
263.6548841481
 10
185.6126036492
 20
262.4355329353
 10
186.1917741601
 20
261.1566258038
 10
186.7071743242
 20
259.8242573285
 10
187.1563480251
 20
258.4447768519
 10
187.5371547456
 20
257.0247582268
 10
187.847779768
 20
255.5709684885
 10
188.0867428229
 20
254.0903356072
 10
188.2529051424
 20
252.5899154728
 10
188.3454748874
 20
251.0768582707
 10
188.3640109209
 20
249.5583744073
 10
188.3084249102
 20
248.0417001498
 10
188.178981748
 20
246.5340631418
 10
187.97629829
 20
245.0426479602
 10
187.7013404151
 20
243.5745618774
 10
187.3554184227
 20
242.1368009923
 10
186.9401807888
 20
240.7362168902
 10
186.4576063097
 20
239.3794839921
 10
185.9099946726
 20
238.0730677482
 10
185.2999554963
 20
236.8231938269
 10
184.6303958954
 20
235.6358184465
 10
183.9045066262
 20
234.5165999915
 10
183.1257468816
 20
233.4708720474
 10
182.2978278066
 20
232.5036179843
 10
181.4246948124
 20
231.6194472081
 10
180.5105087755
 20
230.8225731953
 10
179.5596262087
 20
230.1167934134
 10
178.5765785004
 20
229.5054712245
 10
177.5660503205
 20
228.9915198572
 10
176.5328572962
 20
228.5773885238
 10
175.4819230626
 20
228.2650507488
 10
174.4182557999
 20
228.0559949639
 10
173.3469243672
 20
227.9512174151
 10
172.8099792568
 20
227.9381085072
  0
SPLINE
  5
C3
330
1F
100
AcDbEntity
  8
0
  6
Continuous
 62
     7
370
    25
100
AcDbSpline
210
0.0
220
0.0
230
1.0
 70
     8
 71
     3
 72
    23
 73
    19
 74
     0
 42
0.00000001
 43
0.00000001
 40
0.0
 40
0.0
 40
0.0
 40
0.0
 40
0.020998843246314
 40
0.0913178825687513
 40
0.1583152514551156
 40
0.2271496565419238
 40
0.2961960439385001
 40
0.3670997438607226
 40
0.4387218331580422
 40
0.512459761481015
 40
0.5831861088196751
 40
0.6561681291207394
 40
0.7236075422931689
 40
0.7930399490085057
 40
0.8600517746240972
 40
0.9288522076023502
 40
0.9988012710858436
 40
1.0
 40
1.0
 40
1.0
 40
1.0
 10
160.8030105553461
 20
271.9319105852795
 30
0.0
 10
160.8811527187309
 20
271.9336711696317
 30
0.0
 10
161.2209703370605
 20
271.9413274406578
 30
0.0
 10
161.9417983645679
 20
271.8943265684343
 30
0.0
 10
162.9404281660252
 20
271.7951445588874
 30
0.0
 10
164.0102684611388
 20
271.6495585234132
 30
0.0
 10
165.1392579558554
 20
271.4730260767964
 30
0.0
 10
166.2985994221838
 20
271.2817816054383
 30
0.0
 10
167.4692157077031
 20
271.0946609505449
 30
0.0
 10
168.5941326063605
 20
270.9374482217364
 30
0.0
 10
169.6478477190509
 20
270.8288336797001
 30
0.0
 10
170.5643663481816
 20
270.7847860230065
 30
0.0
 10
171.3419491290708
 20
270.806598137384
 30
0.0
 10
171.9483361961788
 20
270.8871409602662
 30
0.0
 10
172.4007869272978
 20
271.0181711747123
 30
0.0
 10
172.6593446222947
 20
271.1836775035064
 30
0.0
 10
172.7698840177837
 20
271.3108580388371
 30
0.0
 10
172.7378286140967
 20
271.372935646386
 30
0.0
 10
172.73728853073
 20
271.3739815568856
 30
0.0
  0
LINE
  5
C4
330
1F
100
AcDbEntity
  8
0
  6
Continuous
 62
     7
370
    25
100
AcDbLine
 10
172.7389114449
 20
286.9381085072
 30
0.0
 11
158.7389114449
 21
286.9381085072
 31
0.0
  0
LWPOLYLINE
  5
C5
330
1F
100
AcDbEntity
  8
0
  6
Continuous
 62
     1
370
    25
100
AcDbPolyline
 90
       47
 70
   128
 43
0.0
 10
140.5896331463
 20
271.9381085072
 10
141.6628834794
 20
271.8856884978
 10
142.7310192859
 20
271.7286782749
 10
143.7889504123
 20
271.4678260637
 10
144.8316353349
 20
271.1043749438
 10
145.8541051853
 20
270.6400569252
 10
146.851487429
 20
270.0770846948
 10
147.8190290855
 20
269.4181410716
 10
148.752119378
 20
268.6663662221
 10
149.6463117065
 20
267.8253426957
 10
150.4973448372
 20
266.8990783527
 10
151.3011632098
 20
265.8919872644
 10
152.0539362636
 20
264.8088686784
 10
152.7520766922
 20
263.6548841481
 10
153.3922575387
 20
262.4355329353
 10
153.9714280495
 20
261.1566258038
 10
154.4868282137
 20
259.8242573285
 10
154.9360019146
 20
258.4447768519
 10
155.316808635
 20
257.0247582268
 10
155.6274336575
 20
255.5709684885
 10
155.8663967124
 20
254.0903356072
 10
156.0325590319
 20
252.5899154728
 10
156.1251287769
 20
251.0768582707
 10
156.1436648103
 20
249.5583744073
 10
156.0880787997
 20
248.0417001498
 10
155.9586356375
 20
246.5340631418
 10
155.7559521795
 20
245.0426479602
 10
155.4809943045
 20
243.5745618774
 10
155.1350723122
 20
242.1368009923
 10
154.7198346782
 20
240.7362168902
 10
154.2372601992
 20
239.3794839921
 10
153.6896485621
 20
238.0730677482
 10
153.0796093858
 20
236.8231938269
 10
152.4100497849
 20
235.6358184465
 10
151.6841605156
 20
234.5165999915
 10
150.9054007711
 20
233.4708720474
 10
150.077481696
 20
232.5036179843
 10
149.2043487019
 20
231.6194472081
 10
148.290162665
 20
230.8225731953
 10
147.3392800982
 20
230.1167934134
 10
146.3562323898
 20
229.5054712245
 10
145.34570421
 20
228.9915198572
 10
144.3125111856
 20
228.5773885238
 10
143.261576952
 20
228.2650507488
 10
142.1979096894
 20
228.0559949639
 10
141.1265782566
 20
227.9512174151
 10
140.5896331463
 20
227.9381085072
  0
LWPOLYLINE
  5
C6
330
1F
100
AcDbEntity
  8
0
  6
Continuous
 62
     1
370
    25
100
AcDbPolyline
 90
       32
 70
   128
 43
0.0
 10
136.9500228395
 20
265.0875795749
 10
136.155037181
 20
264.6577796058
 10
135.3318906451
 20
264.1054049177
 10
134.5428425868
 20
263.4611498759
 10
133.7930102857
 20
262.7291927217
 10
133.0872566919
 20
261.914280478
 10
132.4301588883
 20
261.0216981634
 10
131.8259784063
 20
260.0572345167
 10
131.2786335882
 20
259.0271444549
 10
130.7916741751
 20
257.9381085072
 10
130.3682582858
 20
256.7971894897
 10
130.0111319347
 20
255.6117866999
 10
129.7226112233
 20
254.3895879299
 10
129.504567319
 20
253.1385196076
 10
129.3584143204
 20
251.8666953913
 10
129.2851000856
 20
250.582363549
 10
129.2851000856
 20
249.2938534655
 10
129.3584143204
 20
248.0095216231
 10
129.504567319
 20
246.7376974068
 10
129.7226112233
 20
245.4866290846
 10
130.0111319347
 20
244.2644303145
 10
130.3682582858
 20
243.0790275248
 10
130.7916741751
 20
241.9381085072
 10
131.2786335882
 20
240.8490725595
 10
131.8259784063
 20
239.8189824977
 10
132.4301588883
 20
238.8545188511
 10
133.0872566919
 20
237.9619365365
 10
133.7930102857
 20
237.1470242928
 10
134.5428425868
 20
236.4150671385
 10
135.3318906451
 20
235.7708120968
 10
136.155037181
 20
235.2184374087
 10
136.9500228395
 20
234.7886374396
  0
INSERT
  5
D2
330
1F
100
AcDbEntity
  8
FORMAT
 62
     7
100
AcDbBlockReference
  2
SW_CENTERMARKSYMBOL_1
 10
131.8028365819
 20
249.9381085072
 30
0.0
  0
LINE
  5
D3
330
1F
100
AcDbEntity
  8
0
  6
Continuous
 62
     7
370
    25
100
AcDbLine
 10
267.287984228
 20
104.5833319601
 30
0.0
 11
267.287984228
 21
59.0168815063
 31
0.0
  0
LINE
  5
D4
330
1F
100
AcDbEntity
  8
0
  6
Continuous
 62
     7
370
    25
100
AcDbLine
 10
311.287984228
 20
75.9947742123
 30
0.0
 11
311.287984228
 21
104.5833319601
 31
0.0
  0
LINE
  5
D5
330
1F
100
AcDbEntity
  8
0
  6
Continuous
 62
     7
370
    25
100
AcDbLine
 10
311.287984228
 20
59.0168815063
 30
0.0
 11
311.287984228
 21
62.0419473712
 31
0.0
  0
LINE
  5
D6
330
1F
100
AcDbEntity
  8
0
  6
Continuous
 62
     7
370
    25
100
AcDbLine
 10
311.287984228
 20
104.5833319601
 30
0.0
 11
311.287984228
 21
125.7965353957
 31
0.0
  0
LINE
  5
D7
330
1F
100
AcDbEntity
  8
0
  6
Continuous
 62
     7
370
    25
100
AcDbLine
 10
267.287984228
 20
125.7965353957
 30
0.0
 11
267.287984228
 21
104.5833319601
 31
0.0
  0
LINE
  5
D8
330
1F
100
AcDbEntity
  8
0
  6
Continuous
 62
     7
370
    25
100
AcDbLine
 10
311.2800223072
 20
62.0168815063
 30
0.0
 11
326.287984228
 21
62.0168815063
 31
0.0
  0
LINE
  5
D9
330
1F
100
AcDbEntity
  8
0
  6
Continuous
 62
     7
370
    25
100
AcDbLine
 10
326.287984228
 20
76.0168815063
 30
0.0
 11
311.2809621923
 21
76.0168815063
 31
0.0
  0
LINE
  5
DA
330
1F
100
AcDbEntity
  8
0
  6
Continuous
 62
     7
370
    25
100
AcDbLine
 10
267.287984228
 20
158.0168815063
 30
0.0
 11
267.287984228
 21
125.7965353957
 31
0.0
  0
LINE
  5
DB
330
1F
100
AcDbEntity
  8
0
  6
Continuous
 62
     7
370
    25
100
AcDbLine
 10
311.287984228
 20
157.9458136944
 30
0.0
 11
311.287984228
 21
158.0168815063
 31
0.0
  0
LINE
  5
DC
330
1F
100
AcDbEntity
  8
0
  6
Continuous
 62
     7
370
    25
100
AcDbLine
 10
311.287984228
 20
125.7965353957
 30
0.0
 11
311.287984228
 21
146.0098694491
 31
0.0
  0
LINE
  5
DD
330
1F
100
AcDbEntity
  8
0
  6
Continuous
 62
     7
370
    25
100
AcDbLine
 10
311.287984228
 20
143.9458136944
 30
0.0
 11
326.287984228
 21
143.9458136944
 31
0.0
  0
LINE
  5
DE
330
1F
100
AcDbEntity
  8
0
  6
Continuous
 62
     7
370
    25
100
AcDbLine
 10
326.287984228
 20
157.9458136944
 30
0.0
 11
310.7237462404
 21
157.9458136944
 31
0.0
  0
LINE
  5
DF
330
1F
100
AcDbEntity
  8
0
  6
Continuous
 62
     7
370
    25
100
AcDbLine
 10
267.287984228
 20
59.0168815063
 30
0.0
 11
311.287984228
 21
59.0168815063
 31
0.0
  0
SPLINE
  5
E0
330
1F
100
AcDbEntity
  8
0
  6
Continuous
 62
     7
370
    25
100
AcDbSpline
210
0.0
220
0.0
230
1.0
 70
     8
 71
     3
 72
    17
 73
    13
 74
     0
 42
0.00000001
 43
0.00000001
 40
0.0
 40
0.0
 40
0.0
 40
0.0
 40
0.1021111582821711
 40
0.2072865921867636
 40
0.3093703043254298
 40
0.4142416349241816
 40
0.5196243267343794
 40
0.6279189691387181
 40
0.7356062166637202
 40
0.8466137864351619
 40
0.9508196563496666
 40
1.0
 40
1.0
 40
1.0
 40
1.0
 10
310.1446378425806
 20
69.01688150625868
 30
0.0
 10
310.1506034897993
 20
68.64014669323552
 30
0.0
 10
310.1627138086221
 20
67.87537155148371
 30
0.0
 10
310.2571235912568
 20
66.76718322433595
 30
0.0
 10
310.3964804138692
 20
65.71441361390298
 30
0.0
 10
310.5699976190467
 20
64.75186591450176
 30
0.0
 10
310.7613865423976
 20
63.88765438054854
 30
0.0
 10
310.9488235663069
 20
63.15817737657778
 30
0.0
 10
311.114103961851
 20
62.57879748862199
 30
0.0
 10
311.2291782056192
 20
62.20215542700792
 30
0.0
 10
311.2872568963371
 20
62.01914552843753
 30
0.0
 10
311.2817784837358
 20
62.0364114007845
 30
0.0
 10
311.2800219359463
 20
62.04194737116745
 30
0.0
  0
SPLINE
  5
E1
330
1F
100
AcDbEntity
  8
0
  6
Continuous
 62
     7
370
    25
100
AcDbSpline
210
0.0
220
0.0
230
1.0
 70
     8
 71
     3
 72
    17
 73
    13
 74
     0
 42
0.00000001
 43
0.00000001
 40
0.0
 40
0.0
 40
0.0
 40
0.0
 40
0.0591189877373756
 40
0.1640463561277373
 40
0.2647079530779399
 40
0.3681043378055065
 40
0.4722948958874767
 40
0.5793076889726294
 40
0.6869562413343161
 40
0.7978355098659091
 40
0.8975108865152557
 40
1.0
 40
1.0
 40
1.0
 40
1.0
 10
311.2809611347586
 20
75.9947742122785
 30
0.0
 10
311.281811933025
 20
75.99746560642102
 30
0.0
 10
311.2841727710698
 20
76.0049338229599
 30
0.0
 10
311.2229105378245
 20
75.81150840898934
 30
0.0
 10
311.1099015952044
 20
75.4400165719978
 30
0.0
 10
310.9550266566655
 20
74.89739453253151
 30
0.0
 10
310.7726071738282
 20
74.19184760711865
 30
0.0
 10
310.5806837934782
 20
73.33563453869776
 30
0.0
 10
310.3984891523912
 20
72.33756432100385
 30
0.0
 10
310.2563703646287
 20
71.26273251451684
 30
0.0
 10
310.1624562543528
 20
70.14096125179297
 30
0.0
 10
310.1506321692669
 20
69.39503536768521
 30
0.0
 10
310.1446378425806
 20
69.01688150625868
 30
0.0
  0
LINE
  5
E2
330
1F
100
AcDbEntity
  8
0
  6
Continuous
 62
     7
370
    25
100
AcDbLine
 10
326.287984228
 20
69.0168815063
 30
0.0
 11
326.287984228
 21
76.0168815063
 31
0.0
  0
LINE
  5
E3
330
1F
100
AcDbEntity
  8
0
  6
Continuous
 62
     7
370
    25
100
AcDbLine
 10
326.287984228
 20
62.0168815063
 30
0.0
 11
326.287984228
 21
69.0168815063
 31
0.0
  0
LWPOLYLINE
  5
E4
330
1F
100
AcDbEntity
  8
0
  6
Continuous
 62
     7
370
    25
100
AcDbPolyline
 90
       48
 70
   128
 43
0.0
 10
267.287984228
 20
158.0168815063
 10
267.3010931358
 20
158.5538266166
 10
267.4058706847
 20
159.6251580494
 10
267.6149264696
 20
160.688825312
 10
267.9272642446
 20
161.7397595456
 10
268.3413955779
 20
162.77295257
 10
268.8553469452
 20
163.7834807498
 10
269.4666691341
 20
164.7665284581
 10
270.172448916
 20
165.717411025
 10
270.9693229288
 20
166.6315970619
 10
271.853493705
 20
167.504730056
 10
272.8207477682
 20
168.3326491311
 10
273.8664757122
 20
169.1114088756
 10
274.9856941673
 20
169.8372981448
 10
276.1730695476
 20
170.5068577458
 10
277.422943469
 20
171.116896922
 10
278.7293597129
 20
171.6645085591
 10
280.0860926109
 20
172.1470830382
 10
281.486676713
 20
172.5623206722
 10
282.9244375982
 20
172.9082426645
 10
284.3925236809
 20
173.1832005394
 10
285.8839388626
 20
173.3858839975
 10
287.3915758706
 20
173.5153271596
 10
288.908250128
 20
173.5709131703
 10
290.4267339914
 20
173.5523771369
 10
291.9397911936
 20
173.4598073919
 10
293.4402113279
 20
173.2936450724
 10
294.9208442092
 20
173.0546820175
 10
296.3746339475
 20
172.744056995
 10
297.7946525727
 20
172.3632502746
 10
299.1741330492
 20
171.9140765737
 10
300.5065015245
 20
171.3986764095
 10
301.7854086561
 20
170.8195058986
 10
303.0047598689
 20
170.1793250522
 10
304.1587443992
 20
169.4811846236
 10
305.2418629851
 20
168.7284115697
 10
306.2489540735
 20
167.9245931972
 10
307.1752184165
 20
167.0735600664
 10
308.0162419428
 20
166.179367738
 10
308.7680167923
 20
165.2462774454
 10
309.4269604155
 20
164.278735789
 10
309.9899326459
 20
163.2813535453
 10
310.4542506645
 20
162.2588836949
 10
310.8177017845
 20
161.2161987722
 10
311.0785539957
 20
160.1582676459
 10
311.2355642186
 20
159.0901318394
 10
311.287984228
 20
158.0168815063
 10
311.287984228
 20
158.0168815063
  0
SPLINE
  5
E5
330
1F
100
AcDbEntity
  8
0
  6
Continuous
 62
     7
370
    25
100
AcDbSpline
210
0.0
220
0.0
230
1.0
 70
     8
 71
     3
 72
    12
 73
     8
 74
     0
 42
0.00000001
 43
0.00000001
 40
0.0
 40
0.0
 40
0.0
 40
0.0
 40
0.2114005930604461
 40
0.4287571113235163
 40
0.6402124100471425
 40
0.8581842511367894
 40
1.0
 40
1.0
 40
1.0
 40
1.0
 10
310.7239353381924
 20
150.9458136943932
 30
0.0
 10
310.7865627110783
 20
150.5611016492948
 30
0.0
 10
310.9135818982036
 20
149.7808388186198
 30
0.0
 10
311.0817275723673
 20
148.6429542255397
 30
0.0
 10
311.2090003810065
 20
147.5591820462553
 30
0.0
 10
311.2808056208314
 20
146.6665181905689
 30
0.0
 10
311.2815090419165
 20
146.195489294507
 30
0.0
 10
311.2817863060321
 20
146.0098260935057
 30
0.0
  0
SPLINE
  5
E6
330
1F
100
AcDbEntity
  8
0
  6
Continuous
 62
     7
370
    25
100
AcDbSpline
210
0.0
220
0.0
230
1.0
 70
     8
 71
     3
 72
    17
 73
    13
 74
     0
 42
0.00000001
 43
0.00000001
 40
0.0
 40
0.0
 40
0.0
 40
0.0
 40
0.0538832550855503
 40
0.1627332832797915
 40
0.2702972395296077
 40
0.3812185185916885
 40
0.4846684806183017
 40
0.5913436101782049
 40
0.6913317977100399
 40
0.794094652031742
 40
0.8957211133161724
 40
1.0
 40
1.0
 40
1.0
 40
1.0
 10
310.7237462404041
 20
157.9219325580556
 30
0.0
 10
310.6917389395661
 20
157.9263418735249
 30
0.0
 10
310.5950734143293
 20
157.939658485192
 30
0.0
 10
310.439451564459
 20
157.7483437759138
 30
0.0
 10
310.2820529922158
 20
157.3576145144411
 30
0.0
 10
310.1767567732655
 20
156.7752845733609
 30
0.0
 10
310.134317764734
 20
156.0293275770827
 30
0.0
 10
310.157756458544
 20
155.1693407457872
 30
0.0
 10
310.241304197438
 20
154.2025289070598
 30
0.0
 10
310.371919275575
 20
153.1724441892763
 30
0.0
 10
310.5390532240644
 20
152.0752750274408
 30
0.0
 10
310.6617809832148
 20
151.3255201952563
 30
0.0
 10
310.7239353381924
 20
150.9458136943932
 30
0.0
  0
LINE
  5
E7
330
1F
100
AcDbEntity
  8
0
  6
Continuous
 62
     7
370
    25
100
AcDbLine
 10
326.287984228
 20
150.9458136944
 30
0.0
 11
326.287984228
 21
157.9458136944
 31
0.0
  0
LINE
  5
E8
330
1F
100
AcDbEntity
  8
0
  6
Continuous
 62
     7
370
    25
100
AcDbLine
 10
326.287984228
 20
143.9458136944
 30
0.0
 11
326.287984228
 21
150.9458136944
 31
0.0
  0
LINE
  5
E9
330
1F
100
AcDbEntity
  8
0
  6
Continuous
 62
     1
370
    25
100
AcDbLine
 10
267.287984228
 20
104.5833319601
 30
0.0
 11
311.287984228
 21
104.5833319601
 31
0.0
  0
LWPOLYLINE
  5
EA
330
1F
100
AcDbEntity
  8
0
  6
Continuous
 62
     1
370
    25
100
AcDbPolyline
 90
       48
 70
   128
 43
0.0
 10
267.287984228
 20
125.7965353957
 10
267.3010931358
 20
126.3334805061
 10
267.4058706847
 20
127.4048119389
 10
267.6149264696
 20
128.4684792015
 10
267.9272642446
 20
129.5194134351
 10
268.3413955779
 20
130.5526064594
 10
268.8553469452
 20
131.5631346393
 10
269.4666691341
 20
132.5461823476
 10
270.172448916
 20
133.4970649145
 10
270.9693229288
 20
134.4112509513
 10
271.853493705
 20
135.2843839455
 10
272.8207477682
 20
136.1123030205
 10
273.8664757122
 20
136.8910627651
 10
274.9856941673
 20
137.6169520343
 10
276.1730695476
 20
138.2865116353
 10
277.422943469
 20
138.8965508115
 10
278.7293597129
 20
139.4441624486
 10
280.0860926109
 20
139.9267369277
 10
281.486676713
 20
140.3419745616
 10
282.9244375982
 20
140.687896554
 10
284.3925236809
 20
140.9628544289
 10
285.8839388626
 20
141.1655378869
 10
287.3915758706
 20
141.2949810491
 10
288.908250128
 20
141.3505670598
 10
290.4267339914
 20
141.3320310263
 10
291.9397911936
 20
141.2394612813
 10
293.4402113279
 20
141.0732989618
 10
294.9208442092
 20
140.834335907
 10
296.3746339475
 20
140.5237108845
 10
297.7946525727
 20
140.142904164
 10
299.1741330492
 20
139.6937304631
 10
300.5065015245
 20
139.178330299
 10
301.7854086561
 20
138.5991597881
 10
303.0047598689
 20
137.9589789417
 10
304.1587443992
 20
137.260838513
 10
305.2418629851
 20
136.5080654592
 10
306.2489540735
 20
135.7042470866
 10
307.1752184165
 20
134.8532139559
 10
308.0162419428
 20
133.9590216274
 10
308.7680167923
 20
133.0259313349
 10
309.4269604155
 20
132.0583896785
 10
309.9899326459
 20
131.0610074348
 10
310.4542506645
 20
130.0385375844
 10
310.8177017845
 20
128.9958526617
 10
311.0785539957
 20
127.9379215353
 10
311.2355642186
 20
126.8697857288
 10
311.287984228
 20
125.7965353957
 10
311.287984228
 20
125.7965353957
  0
INSERT
  5
F6
330
1F
100
AcDbEntity
  8
FORMAT
 62
     7
100
AcDbBlockReference
  2
SW_CENTERMARKSYMBOL_2
 10
289.287984228
 20
121.0168815063
 30
0.0
  0
LINE
  5
F7
330
1F
100
AcDbEntity
  8
0
  6
Continuous
 62
     7
370
    25
100
AcDbLine
 10
172.8099792568
 20
-4.1913737765
 30
0.0
 11
140.5896331463
 21
-4.1913737765
 31
0.0
  0
LINE
  5
F8
330
1F
100
AcDbEntity
  8
0
  6
Continuous
 62
     7
370
    25
100
AcDbLine
 10
170.6723006423
 20
-48.1913737765
 30
0.0
 11
172.8099792568
 21
-48.1913737765
 31
0.0
  0
LINE
  5
F9
330
1F
100
AcDbEntity
  8
0
  6
Continuous
 62
     7
370
    25
100
AcDbLine
 10
140.5896331463
 20
-48.1913737765
 30
0.0
 11
158.7389114449
 21
-48.1913737765
 31
0.0
  0
LINE
  5
FA
330
1F
100
AcDbEntity
  8
0
  6
Continuous
 62
     7
370
    25
100
AcDbLine
 10
158.7389114449
 20
-47.6273248868
 30
0.0
 11
158.7389114449
 21
-63.1913737765
 31
0.0
  0
LINE
  5
FB
330
1F
100
AcDbEntity
  8
0
  6
Continuous
 62
     7
370
    25
100
AcDbLine
 10
172.7389114449
 20
-63.1913737765
 30
0.0
 11
172.7389114449
 21
-48.1913737765
 31
0.0
  0
LINE
  5
FC
330
1F
100
AcDbEntity
  8
0
  6
Continuous
 62
     7
370
    25
100
AcDbLine
 10
131.8028365819
 20
-48.1913737765
 30
0.0
 11
140.5896331463
 21
-48.1913737765
 31
0.0
  0
LINE
  5
FD
330
1F
100
AcDbEntity
  8
0
  6
Continuous
 62
     7
370
    25
100
AcDbLine
 10
140.5896331463
 20
-4.1913737765
 30
0.0
 11
131.8028365819
 21
-4.1913737765
 31
0.0
  0
LINE
  5
FE
330
1F
100
AcDbEntity
  8
0
  6
Continuous
 62
     7
370
    25
100
AcDbLine
 10
124.8028365819
 20
-47.0480273912
 30
0.0
 11
124.8028365819
 21
-63.1913737765
 31
0.0
  0
LINE
  5
FF
330
1F
100
AcDbEntity
  8
0
  6
Continuous
 62
     7
370
    25
100
AcDbLine
 10
138.8028365819
 20
-63.1913737765
 30
0.0
 11
138.8028365819
 21
-48.1913737765
 31
0.0
  0
LWPOLYLINE
  5
100
330
1F
100
AcDbEntity
  8
0
  6
Continuous
 62
     7
370
    25
100
AcDbPolyline
 90
       92
 70
   128
 43
0.0
 10
172.8099792568
 20
-48.1913737765
 10
173.8832295899
 20
-48.1389537672
 10
174.9513653964
 20
-47.9819435443
 10
176.0092965228
 20
-47.721091333
 10
177.0519814454
 20
-47.3576402131
 10
178.0744512959
 20
-46.8933221945
 10
179.0718335396
 20
-46.3303499641
 10
180.039375196
 20
-45.6714063409
 10
180.9724654885
 20
-44.9196314914
 10
181.866657817
 20
-44.0786079651
 10
182.7176909477
 20
-43.152343622
 10
183.5215093203
 20
-42.1452525337
 10
184.2742823741
 20
-41.0621339477
 10
184.9724228028
 20
-39.9081494174
 10
185.6126036492
 20
-38.6887982046
 10
186.1917741601
 20
-37.4098910731
 10
186.7071743242
 20
-36.0775225978
 10
187.1563480251
 20
-34.6980421212
 10
187.5371547456
 20
-33.2780234961
 10
187.847779768
 20
-31.8242337578
 10
188.0867428229
 20
-30.3436008765
 10
188.2529051424
 20
-28.8431807422
 10
188.3454748874
 20
-27.33012354
 10
188.3640109209
 20
-25.8116396766
 10
188.3084249102
 20
-24.2949654192
 10
188.178981748
 20
-22.7873284112
 10
187.97629829
 20
-21.2959132295
 10
187.7013404151
 20
-19.8278271467
 10
187.3554184227
 20
-18.3900662616
 10
186.9401807888
 20
-16.9894821595
 10
186.4576063097
 20
-15.6327492614
 10
185.9099946726
 20
-14.3263330176
 10
185.2999554963
 20
-13.0764590962
 10
184.6303958954
 20
-11.8890837158
 10
183.9045066262
 20
-10.7698652608
 10
183.1257468816
 20
-9.7241373168
 10
182.2978278066
 20
-8.7568832536
 10
181.4246948124
 20
-7.8727124774
 10
180.5105087755
 20
-7.0758384646
 10
179.5596262087
 20
-6.3700586827
 10
178.5765785004
 20
-5.7587364938
 10
177.5660503205
 20
-5.2447851265
 10
176.5328572962
 20
-4.8306537932
 10
175.4819230626
 20
-4.5183160182
 10
174.4182557999
 20
-4.3092602332
 10
173.3469243672
 20
-4.2044826844
 10
172.2730341464
 20
-4.2044826844
 10
171.2017027137
 20
-4.3092602332
 10
170.1380354511
 20
-4.5183160182
 10
169.0871012175
 20
-4.8306537932
 10
168.0539081931
 20
-5.2447851265
 10
167.0433800133
 20
-5.7587364938
 10
166.0603323049
 20
-6.3700586827
 10
165.1094497381
 20
-7.0758384646
 10
164.1952637012
 20
-7.8727124774
 10
163.3221307071
 20
-8.7568832536
 10
162.494211632
 20
-9.7241373168
 10
161.7154518875
 20
-10.7698652608
 10
160.9895626182
 20
-11.8890837158
 10
160.3200030173
 20
-13.0764590962
 10
159.709963841
 20
-14.3263330176
 10
159.1623522039
 20
-15.6327492614
 10
158.6797777248
 20
-16.9894821595
 10
158.2645400909
 20
-18.3900662616
 10
157.9186180986
 20
-19.8278271467
 10
157.6436602236
 20
-21.2959132295
 10
157.4409767656
 20
-22.7873284112
 10
157.3115336034
 20
-24.2949654192
 10
157.2559475928
 20
-25.8116396766
 10
157.2744836262
 20
-27.33012354
 10
157.3670533712
 20
-28.8431807422
 10
157.5332156907
 20
-30.3436008765
 10
157.7721787456
 20
-31.8242337578
 10
158.0828037681
 20
-33.2780234961
 10
158.4636104885
 20
-34.6980421212
 10
158.9127841894
 20
-36.0775225978
 10
159.4281843535
 20
-37.4098910731
 10
160.0073548644
 20
-38.6887982046
 10
160.6475357109
 20
-39.9081494174
 10
161.3456761395
 20
-41.0621339477
 10
162.0984491933
 20
-42.1452525337
 10
162.9022675659
 20
-43.152343622
 10
163.7533006966
 20
-44.0786079651
 10
164.6474930251
 20
-44.9196314914
 10
165.5805833176
 20
-45.6714063409
 10
166.5481249741
 20
-46.3303499641
 10
167.5455072178
 20
-46.8933221945
 10
168.5679770682
 20
-47.3576402131
 10
169.6106619908
 20
-47.721091333
 10
170.6685931172
 20
-47.9819435443
 10
171.7367289237
 20
-48.1389537672
 10
172.8099792568
 20
-48.1913737765
  0
LWPOLYLINE
  5
101
330
1F
100
AcDbEntity
  8
0
  6
Continuous
 62
     7
370
    25
100
AcDbPolyline
 90
       79
 70
   128
 43
0.0
 10
172.8099792568
 20
-42.1913737765
 10
171.8996039544
 20
-42.1394907067
 10
170.9951327852
 20
-41.9841779787
 10
170.1024315918
 20
-41.7264428554
 10
169.227289884
 20
-41.3679568477
 10
168.3753832915
 20
-40.9110448751
 10
167.5522367556
 20
-40.358670187
 10
166.7631886973
 20
-39.7144151452
 10
166.0133563962
 20
-38.982457991
 10
165.3076028024
 20
-38.1675457473
 10
164.6505049988
 20
-37.2749634327
 10
164.0463245168
 20
-36.3104997861
 10
163.4989796987
 20
-35.2804097242
 10
163.0120202857
 20
-34.1913737765
 10
162.5886043964
 20
-33.050454759
 10
162.2314780453
 20
-31.8650519692
 10
161.9429573338
 20
-30.6428531992
 10
161.7249134296
 20
-29.391784877
 10
161.5787604309
 20
-28.1199606606
 10
161.5054461961
 20
-26.8356288183
 10
161.5054461961
 20
-25.5471187348
 10
161.5787604309
 20
-24.2627868925
 10
161.7249134296
 20
-22.9909626761
 10
161.9429573338
 20
-21.7398943539
 10
162.2314780453
 20
-20.5176955839
 10
162.5886043964
 20
-19.3322927941
 10
163.0120202857
 20
-18.1913737765
 10
163.4989796987
 20
-17.1023378288
 10
164.0463245168
 20
-16.072247767
 10
164.6505049988
 20
-15.1077841204
 10
165.3076028024
 20
-14.2152018058
 10
166.0133563962
 20
-13.4002895621
 10
166.7631886973
 20
-12.6683324078
 10
167.5522367556
 20
-12.0240773661
 10
168.3753832915
 20
-11.471702678
 10
169.227289884
 20
-11.0147907054
 10
170.1024315918
 20
-10.6563046977
 10
170.9951327852
 20
-10.3985695743
 10
171.8996039544
 20
-10.2432568464
 10
172.8099792568
 20
-10.1913737765
 10
173.7203545592
 20
-10.2432568464
 10
174.6248257284
 20
-10.3985695743
 10
175.5175269218
 20
-10.6563046977
 10
176.3926686296
 20
-11.0147907054
 10
177.2445752221
 20
-11.471702678
 10
178.067721758
 20
-12.0240773661
 10
178.8567698163
 20
-12.6683324078
 10
179.6066021174
 20
-13.4002895621
 10
180.3123557112
 20
-14.2152018058
 10
180.9694535148
 20
-15.1077841204
 10
181.5736339968
 20
-16.072247767
 10
182.1209788149
 20
-17.1023378288
 10
182.6079382279
 20
-18.1913737765
 10
183.0313541173
 20
-19.3322927941
 10
183.3884804684
 20
-20.5176955839
 10
183.6770011798
 20
-21.7398943539
 10
183.8950450841
 20
-22.9909626761
 10
184.0411980827
 20
-24.2627868925
 10
184.1145123175
 20
-25.5471187348
 10
184.1145123175
 20
-26.8356288183
 10
184.0411980827
 20
-28.1199606606
 10
183.895045084
 20
-29.391784877
 10
183.6770011798
 20
-30.6428531992
 10
183.3884804684
 20
-31.8650519692
 10
183.0313541173
 20
-33.050454759
 10
182.6079382279
 20
-34.1913737765
 10
182.1209788149
 20
-35.2804097242
 10
181.5736339968
 20
-36.3104997861
 10
180.9694535148
 20
-37.2749634327
 10
180.3123557112
 20
-38.1675457473
 10
179.6066021174
 20
-38.982457991
 10
178.8567698163
 20
-39.7144151452
 10
178.067721758
 20
-40.358670187
 10
177.2445752221
 20
-40.9110448751
 10
176.3926686296
 20
-41.3679568477
 10
175.5175269218
 20
-41.7264428554
 10
174.6248257284
 20
-41.9841779787
 10
173.7203545592
 20
-42.1394907067
 10
172.8099792568
 20
-42.1913737765
  0
SPLINE
  5
102
330
1F
100
AcDbEntity
  8
0
  6
Continuous
 62
     7
370
    25
100
AcDbSpline
210
0.0
220
0.0
230
1.0
 70
     8
 71
     3
 72
    22
 73
    18
 74
     0
 42
0.00000001
 43
0.00000001
 40
0.0
 40
0.0
 40
0.0
 40
0.0
 40
0.0250551396689869
 40
0.092232038196535
 40
0.1613350618087248
 40
0.2290721442060248
 40
0.2986204247872398
 40
0.3692180499967731
 40
0.4417890444446921
 40
0.513502606685318
 40
0.5874545170385779
 40
0.6564252536053504
 40
0.7275462295338835
 40
0.7942089793981428
 40
0.8627216169614935
 40
0.9304766141809084
 40
1.0
 40
1.0
 40
1.0
 40
1.0
 10
170.6722578437085
 20
-48.18402832914541
 30
0.0
 10
170.578782920536
 20
-48.18603957588118
 30
0.0
 10
170.2346865475615
 20
-48.19344330175169
 30
0.0
 10
169.4987180328994
 20
-48.14450219714697
 30
0.0
 10
168.5076377426491
 20
-48.04485285535493
 30
0.0
 10
167.4282627867861
 20
-47.89697401904294
 30
0.0
 10
166.3031542504675
 20
-47.72051473159466
 30
0.0
 10
165.1376380583297
 20
-47.5282044874584
 30
0.0
 10
163.9753341208923
 20
-47.34289486187105
 30
0.0
 10
162.8414275721584
 20
-47.18542767952433
 30
0.0
 10
161.8041296144343
 20
-47.08015005108426
 30
0.0
 10
160.8795857508379
 20
-47.03770630781677
 30
0.0
 10
160.1177512162675
 20
-47.06114626082277
 30
0.0
 10
159.5084423311836
 20
-47.14469367784978
 30
0.0
 10
159.0730201273992
 20
-47.27530884229003
 30
0.0
 10
158.7919530883206
 20
-47.44244276798372
 30
0.0
 10
158.7567431813836
 20
-47.56517053022259
 30
0.0
 10
158.7389114449481
 20
-47.62732488676433
 30
0.0
  0
LINE
  5
103
330
1F
100
AcDbEntity
  8
0
  6
Continuous
 62
     7
370
    25
100
AcDbLine
 10
158.7389114449
 20
-63.1913737765
 30
0.0
 11
172.7389114449
 21
-63.1913737765
 31
0.0
  0
ARC
  5
104
330
1F
100
AcDbEntity
  8
0
  6
Continuous
 62
     7
370
    25
100
AcDbCircle
 10
131.8028365819
 20
-26.1913737765
 30
0.0
 40
22.00000000000001
100
AcDbArc
 50
90.0
 51
270.0
  0
LINE
  5
105
330
1F
100
AcDbEntity
  8
0
  6
Continuous
 62
     7
370
    25
100
AcDbLine
 10
124.8028365819
 20
-63.1913737765
 30
0.0
 11
138.8028365819
 21
-63.1913737765
 31
0.0
  0
LWPOLYLINE
  5
106
330
1F
100
AcDbEntity
  8
0
  6
Continuous
 62
     1
370
    25
100
AcDbPolyline
 90
       48
 70
   128
 43
0.0
 10
140.5896331463
 20
-4.1913737765
 10
140.0526880359
 20
-4.2044826844
 10
138.9813566031
 20
-4.3092602332
 10
137.9176893405
 20
-4.5183160182
 10
136.8667551069
 20
-4.8306537932
 10
135.8335620826
 20
-5.2447851265
 10
134.8230339027
 20
-5.7587364938
 10
133.8399861944
 20
-6.3700586827
 10
132.8891036276
 20
-7.0758384646
 10
131.9749175907
 20
-7.8727124774
 10
131.1017845965
 20
-8.7568832536
 10
130.2738655215
 20
-9.7241373168
 10
129.4951057769
 20
-10.7698652608
 10
128.7692165077
 20
-11.8890837158
 10
128.0996569068
 20
-13.0764590962
 10
127.4896177305
 20
-14.3263330176
 10
126.9420060934
 20
-15.6327492614
 10
126.4594316143
 20
-16.9894821595
 10
126.0441939804
 20
-18.3900662616
 10
125.698271988
 20
-19.8278271467
 10
125.4233141131
 20
-21.2959132295
 10
125.2206306551
 20
-22.7873284112
 10
125.0911874929
 20
-24.2949654192
 10
125.0356014822
 20
-25.8116396766
 10
125.0541375157
 20
-27.33012354
 10
125.1467072607
 20
-28.8431807422
 10
125.3128695802
 20
-30.3436008765
 10
125.551832635
 20
-31.8242337578
 10
125.8624576575
 20
-33.2780234961
 10
126.243264378
 20
-34.6980421212
 10
126.6924380789
 20
-36.0775225978
 10
127.207838243
 20
-37.4098910731
 10
127.7870087539
 20
-38.6887982046
 10
128.4271896003
 20
-39.9081494174
 10
129.125330029
 20
-41.0621339477
 10
129.8781030828
 20
-42.1452525337
 10
130.6819214554
 20
-43.152343622
 10
131.5329545861
 20
-44.0786079651
 10
132.4271469146
 20
-44.9196314914
 10
133.3602372071
 20
-45.6714063409
 10
134.3277788635
 20
-46.3303499641
 10
135.3251611072
 20
-46.8933221945
 10
136.3476309577
 20
-47.3576402131
 10
137.3903158803
 20
-47.721091333
 10
138.4482470067
 20
-47.9819435443
 10
139.5163828132
 20
-48.1389537672
 10
140.5896331463
 20
-48.1913737765
 10
140.5896331463
 20
-48.1913737765
  0
INSERT
  5
112
330
1F
100
AcDbEntity
  8
FORMAT
 62
     7
100
AcDbBlockReference
  2
SW_CENTERMARKSYMBOL_3
 10
131.8028365819
 20
-26.1913737765
 30
0.0
  0
LINE
  5
113
330
1F
100
AcDbEntity
  8
0
  6
Continuous
 62
     7
370
    25
100
AcDbLine
 10
249.3039155974
 20
-32.8728037926
 30
0.0
 11
249.3039155974
 21
-41.1312476285
 31
0.0
  0
LINE
  5
114
330
1F
100
AcDbEntity
  8
0
  6
Continuous
 62
     7
370
    25
100
AcDbLine
 10
249.3039155974
 20
-57.2966172839
 30
0.0
 11
249.3039155974
 21
-70.079670241
 31
0.0
  0
LINE
  5
115
330
1F
100
AcDbEntity
  8
0
  6
Continuous
 62
     7
370
    25
100
AcDbLine
 10
293.3039155974
 20
-70.079670241
 30
0.0
 11
293.3039155974
 21
-32.8728037926
 31
0.0
  0
LINE
  5
116
330
1F
100
AcDbEntity
  8
0
  6
Continuous
 62
     7
370
    25
100
AcDbLine
 10
259.6458978738
 20
-47.1015469153
 30
0.0
 11
248.6406802577
 21
-40.7483700167
 31
0.0
  0
LINE
  5
117
330
1F
100
AcDbEntity
  8
0
  6
Continuous
 62
     7
370
    25
100
AcDbLine
 10
241.6412491293
 20
-52.8730540901
 30
0.0
 11
252.6464599955
 21
-59.226227092
 31
0.0
  0
LINE
  5
118
330
1F
100
AcDbEntity
  8
0
  6
Continuous
 62
     7
370
    25
100
AcDbLine
 10
281.2477853907
 20
38.4971521212
 30
0.0
 11
279.7472692782
 21
35.8981819844
 31
0.0
  0
LINE
  5
119
330
1F
100
AcDbEntity
  8
0
  6
Continuous
 62
     7
370
    25
100
AcDbLine
 10
272.747269255
 20
23.7738263269
 30
0.0
 11
258.4645601637
 21
-0.9645514163
 31
0.0
  0
LINE
  5
11A
330
1F
100
AcDbEntity
  8
0
  6
Continuous
 62
     7
370
    25
100
AcDbLine
 10
296.5696779023
 20
-22.9645514648
 30
0.0
 11
319.3529031292
 21
16.4971520727
 31
0.0
  0
SPLINE
  5
11B
330
1F
100
AcDbEntity
  8
0
  6
Continuous
 62
     7
370
    25
100
AcDbSpline
210
0.0
220
0.0
230
1.0
 70
     8
 71
     3
 72
    22
 73
    18
 74
     0
 42
0.00000001
 43
0.00000001
 40
0.0
 40
0.0
 40
0.0
 40
0.0
 40
0.0388067773721641
 40
0.1061076835592025
 40
0.1733708842333276
 40
0.2410011479873354
 40
0.3092307665122487
 40
0.378225019515822
 40
0.4480863594469325
 40
0.5188604299449988
 40
0.5905429770912233
 40
0.6630872594028071
 40
0.736411537282173
 40
0.8104062823748008
 40
0.8849408615006082
 40
0.9598695858272676
 40
1.0
 40
1.0
 40
1.0
 40
1.0
 10
293.3039155974092
 20
-32.87280379261974
 30
0.0
 10
293.304315470331
 20
-32.81711152770363
 30
0.0
 10
293.3054088254694
 20
-32.6648345899476
 30
0.0
 10
293.3196986853081
 20
-32.3477844078255
 30
0.0
 10
293.3580341507026
 20
-31.90385790667933
 30
0.0
 10
293.4243576362163
 20
-31.38395789644535
 30
0.0
 10
293.5233585436645
 20
-30.79399194533627
 30
0.0
 10
293.6592846858854
 20
-30.13883975964576
 30
0.0
 10
293.8355416201507
 20
-29.42472310386336
 30
0.0
 10
294.0547127118904
 20
-28.65852671239447
 30
0.0
 10
294.3184689366902
 20
-27.84794053039473
 30
0.0
 10
294.6275088085691
 20
-27.00130594932304
 30
0.0
 10
294.981579144935
 20
-26.12754048301036
 30
0.0
 10
295.3792562007576
 20
-25.23584057698769
 30
0.0
 10
295.818743803075
 20
-24.33606622594136
 30
0.0
 10
296.2206539068444
 20
-23.57683248337322
 30
0.0
 10
296.4794239048206
 20
-23.12288100721796
 30
0.0
 10
296.5696779022841
 20
-22.9645514647755
 30
0.0
  0
SPLINE
  5
11C
330
1F
100
AcDbEntity
  8
0
  6
Continuous
 62
     7
370
    25
100
AcDbSpline
210
0.0
220
0.0
230
1.0
 70
     8
 71
     3
 72
    23
 73
    19
 74
     0
 42
0.00000001
 43
0.00000001
 40
0.0
 40
0.0
 40
0.0
 40
0.0
 40
0.036204598576385
 40
0.1001642260507905
 40
0.1641879690476948
 40
0.2283123182185141
 40
0.2925769331037232
 40
0.3570197884835283
 40
0.4216759466322356
 40
0.4865759679855949
 40
0.551743850106047
 40
0.6171944070828196
 40
0.6829300596297706
 40
0.7489371234855462
 40
0.8151818820095766
 40
0.8816070116865589
 40
0.9481151700251725
 40
1.0
 40
1.0
 40
1.0
 40
1.0
 10
258.4645601637273
 20
-0.9645514163498792
 30
0.0
 10
258.2579648570382
 20
-1.326619597862164
 30
0.0
 10
257.6863949511715
 20
-2.328323265485488
 30
0.0
 10
256.7960140115484
 20
-3.995633755924044
 30
0.0
 10
255.8115066422273
 20
-5.972387319967395
 30
0.0
 10
254.8885630798167
 20
-7.977161182250877
 30
0.0
 10
254.0277852482196
 20
-10.00728424046456
 30
0.0
 10
253.2311890637555
 20
-12.06092192429281
 30
0.0
 10
252.5005983379241
 20
-14.13601142612049
 30
0.0
 10
251.8381023972399
 20
-16.23047724855573
 30
0.0
 10
251.2459445852281
 20
-18.34209470240646
 30
0.0
 10
250.7265737402149
 20
-20.46842251568478
 30
0.0
 10
250.2825668672448
 20
-22.60670190060035
 30
0.0
 10
249.9168231432103
 20
-24.75370712721301
 30
0.0
 10
249.6316703137159
 20
-26.90573371717204
 30
0.0
 10
249.4319091951866
 20
-29.05789975157089
 30
0.0
 10
249.3216425984841
 20
-31.04861302698188
 30
0.0
 10
249.3093171373513
 20
-32.31696023843149
 30
0.0
 10
249.3039155974092
 20
-32.87280379261972
 30
0.0
  0
LINE
  5
11D
330
1F
100
AcDbEntity
  8
0
  6
Continuous
 62
     7
370
    25
100
AcDbLine
 10
283.2488981931
 20
33.8767346395
 30
0.0
 11
272.6371089203
 21
40.0027901899
 31
0.0
  0
LINE
  5
11E
330
1F
100
AcDbEntity
  8
0
  6
Continuous
 62
     7
370
    25
100
AcDbLine
 10
265.6376777918
 20
27.8781061166
 30
0.0
 11
276.2486542996
 21
21.7525197654
 31
0.0
  0
LWPOLYLINE
  5
11F
330
1F
100
AcDbEntity
  8
0
  6
Continuous
 62
     7
370
    25
100
AcDbPolyline
 90
       92
 70
   128
 43
0.0
 10
255.7475664113
 20
-61.0991810109
 10
256.8578832885
 20
-60.5010048421
 10
258.0370420883
 20
-59.9484753759
 10
259.2794235822
 20
-59.4442256671
 10
260.5791072563
 20
-58.9906586949
 10
261.9298995263
 20
-58.5899359127
 10
263.3253632518
 20
-58.243966947
 10
264.7588484126
 20
-57.9544004974
 10
266.2235237991
 20
-57.72261648
 10
267.7124095662
 20
-57.5497194511
 10
269.2184104951
 20
-57.4365333438
 10
270.7343498055
 20
-57.3835975415
 10
272.2530033563
 20
-57.3911643074
 10
273.7671340717
 20
-57.4591975823
 10
275.2695264293
 20
-57.5873731568
 10
276.7530208454
 20
-57.7750802159
 10
278.2105477935
 20
-58.0214242499
 10
279.6351614939
 20
-58.3252313174
 10
281.0200730135
 20
-58.6850536392
 10
282.3586826184
 20
-59.0991764983
 10
283.6446112241
 20
-59.5656264105
 10
284.8717307952
 20
-60.0821805297
 10
286.0341935482
 20
-60.6463772402
 10
287.1264598186
 20
-61.2555278877
 10
288.1433244602
 20
-61.906729592
 10
289.07994165
 20
-62.5968790804
 10
289.9318479804
 20
-63.3226874764
 10
290.69498373
 20
-64.0806959724
 10
291.3657122092
 20
-64.8672923126
 10
291.9408370915
 20
-65.6787280074
 10
292.4176176449
 20
-66.5111361961
 10
292.7937817929
 20
-67.3605500747
 10
293.0675369421
 20
-68.2229217991
 10
293.2375785244
 20
-69.0941417754
 10
293.3030962144
 20
-69.9700582436
 10
293.2637777903
 20
-70.846497063
 10
293.1198106225
 20
-71.7192816033
 10
292.8718807799
 20
-72.5842526488
 10
292.5211697612
 20
-73.4372882185
 10
292.0693488642
 20
-74.2743232095
 10
291.5185712211
 20
-75.0913687689
 10
290.8714615383
 20
-75.8845313025
 10
290.131103588
 20
-76.6500310297
 10
289.3010255132
 20
-77.3842199955
 10
288.3851830137
 20
-78.0835994553
 10
287.3879404962
 20
-78.7448365474
 10
286.3140502755
 20
-79.3647801759
 10
285.1686299274
 20
-79.9404760272
 10
283.9571379016
 20
-80.4691806484
 10
282.6853475093
 20
-80.9483745211
 10
281.3593194109
 20
-81.3757740683
 10
279.985372734
 20
-81.7493425366
 10
278.5700549604
 20
-82.067299702
 10
277.1201107238
 20
-82.3281303539
 10
275.6424496687
 20
-82.5305915155
 10
274.1441135229
 20
-82.6737183671
 10
272.6322425407
 20
-82.756828844
 10
271.1140414756
 20
-82.7795268871
 10
269.5967452473
 20
-82.7417043298
 10
268.087584463
 20
-82.6435414137
 10
266.5937509614
 20
-82.48550593
 10
265.1223635392
 20
-82.2683509896
 10
263.6804340276
 20
-81.9931114348
 10
262.2748338774
 20
-81.6610989073
 10
260.9122614135
 20
-81.2738955981
 10
259.5992099141
 20
-80.8333467073
 10
258.3419366675
 20
-80.3415516508
 10
257.1464331534
 20
-79.8008540562
 10
256.0183964904
 20
-79.2138305938
 10
254.963202287
 20
-78.5832786976
 10
253.985879024
 20
-77.9122032345
 10
253.0910840919
 20
-77.2038021849
 10
252.2830815959
 20
-76.4614514022
 10
251.5657220361
 20
-75.688688526
 10
250.9424239572
 20
-74.8891961234
 10
250.4161576586
 20
-74.0667841397
 10
249.9894310389
 20
-73.2253717425
 10
249.6642776446
 20
-72.3689686451
 10
249.4422469798
 20
-71.5016559984
 10
249.3243971217
 20
-70.6275669419
 10
249.3112896785
 20
-69.7508669081
 10
249.4029871133
 20
-68.8757337719
 10
249.5990524459
 20
-68.0063379413
 10
249.8985513357
 20
-67.1468224833
 10
250.3000565342
 20
-66.3012833804
 10
250.8016546863
 20
-65.4737500116
 10
251.4009554482
 20
-64.6681659502
 10
252.0951028791
 20
-63.8883701712
 10
252.8807890502
 20
-63.1380787565
 10
253.7542698091
 20
-62.4208671864
 10
254.7113826223
 20
-61.7401533007
 10
255.7475664113
 20
-61.0991810109
  0
SPLINE
  5
120
330
1F
100
AcDbEntity
  8
0
  6
Continuous
 62
     7
370
    25
100
AcDbSpline
210
0.0
220
0.0
230
1.0
 70
     8
 71
     3
 72
    27
 73
    23
 74
     0
 42
0.00000001
 43
0.00000001
 40
0.0
 40
0.0
 40
0.0
 40
0.0
 40
0.0097280722601676
 40
0.0638756584039841
 40
0.1177195456221475
 40
0.1732236020866625
 40
0.2253267919824252
 40
0.279055411370431
 40
0.3293600626385927
 40
0.3810922992802599
 40
0.4320759740349925
 40
0.4844211806439647
 40
0.5375733509237878
 40
0.5922269376615981
 40
0.6459235929823721
 40
0.7013089901656503
 40
0.7527772165885857
 40
0.8058352317783403
 40
0.8558268897051797
 40
0.9071915785079323
 40
0.9586901922112172
 40
1.0
 40
1.0
 40
1.0
 40
1.0
 10
252.6539462020624
 20
-59.2141120999143
 30
0.0
 10
252.6789280990511
 20
-59.2336886078161
 30
0.0
 10
252.8429621518063
 20
-59.36223024464152
 30
0.0
 10
253.2416528891275
 20
-59.43528652937472
 30
0.0
 10
253.8619381271452
 20
-59.42186770394649
 30
0.0
 10
254.5768736813726
 20
-59.2257434379982
 30
0.0
 10
255.3666392699051
 20
-58.87650209501453
 30
0.0
 10
256.1867869725878
 20
-58.39826504722172
 30
0.0
 10
257.0330938839491
 20
-57.79988706267204
 30
0.0
 10
257.8661301192543
 20
-57.10999718226709
 30
0.0
 10
258.6832218901518
 20
-56.32385106171257
 30
0.0
 10
259.4525918952079
 20
-55.45802531893781
 30
0.0
 10
260.1532683128077
 20
-54.51260011293846
 30
0.0
 10
260.7414361245386
 20
-53.51494725560259
 30
0.0
 10
261.1882159989503
 20
-52.47850797235046
 30
0.0
 10
261.454610112986
 20
-51.46027467501116
 30
0.0
 10
261.5356957993207
 20
-50.47288579513376
 30
0.0
 10
261.4349178403255
 20
-49.57155498327064
 30
0.0
 10
261.1650160110311
 20
-48.74985131723274
 30
0.0
 10
260.7438364044169
 20
-48.04271327333122
 30
0.0
 10
260.2316698690055
 20
-47.47589394720632
 30
0.0
 10
259.8204318988541
 20
-47.226448713117
 30
0.0
 10
259.6373864248627
 20
-47.11541854464313
 30
0.0
  0
LWPOLYLINE
  5
121
330
1F
100
AcDbEntity
  8
0
  6
Continuous
 62
     7
370
    25
100
AcDbPolyline
 90
       79
 70
   128
 43
0.0
 10
259.9902070984
 20
-63.5484053464
 10
259.1165186666
 20
-64.0951327014
 10
258.3218701805
 20
-64.6806720788
 10
257.6114152406
 20
-65.301226031
 10
256.9897614197
 20
-65.9527700276
 10
256.4609403815
 20
-66.6310785557
 10
256.0283817333
 20
-67.3317525242
 10
255.6948907839
 20
-68.0502477936
 10
255.46263035
 20
-68.7819046462
 10
255.3331067298
 20
-69.5219780068
 10
255.3071599337
 20
-70.2656682155
 10
255.3849582364
 20
-71.008152156
 10
255.5659970863
 20
-71.7446145349
 10
255.8491023768
 20
-72.4702791112
 10
256.2324380615
 20
-73.1804396717
 10
256.7135180615
 20
-73.8704905525
 10
257.2892223883
 20
-74.5359565089
 10
257.9558173785
 20
-75.1725217389
 10
258.7089799077
 20
-75.7760578727
 10
259.5438254279
 20
-76.3426507467
 10
260.4549396455
 20
-76.8686257889
 10
261.4364136354
 20
-77.3505718492
 10
262.4818821619
 20
-77.7853633225
 10
263.5845649605
 20
-78.1701804192
 10
264.7373107102
 20
-78.5025274529
 10
265.9326434123
 20
-78.7802490254
 10
267.1628108758
 20
-79.0015440058
 10
268.4198349924
 20
-79.1649772113
 10
269.6955634784
 20
-79.2694887147
 10
270.9817227452
 20
-79.3144007189
 10
272.2699715562
 20
-79.2994219523
 10
273.5519551236
 20
-79.2246495579
 10
274.819359292
 20
-79.0905684635
 10
276.0639644591
 20
-78.8980482363
 10
277.2776988827
 20
-78.6483374439
 10
278.4526910294
 20
-78.3430555566
 10
279.5813206243
 20
-77.9841824447
 10
280.6562680712
 20
-77.5740455379
 10
281.6705619235
 20
-77.1153047315
 10
282.6176240964
 20
-76.6109351356
 10
283.4913125282
 20
-76.0642077806
 10
284.2859610143
 20
-75.4786684032
 10
284.9964159542
 20
-74.8581144509
 10
285.6180697751
 20
-74.2065704543
 10
286.1468908133
 20
-73.5282619263
 10
286.5794494615
 20
-72.8275879578
 10
286.912940411
 20
-72.1090926884
 10
287.1452008448
 20
-71.3774358357
 10
287.274724465
 20
-70.6373624752
 10
287.3006712612
 20
-69.8936722665
 10
287.2228729584
 20
-69.151188326
 10
287.0418341086
 20
-68.414725947
 10
286.758728818
 20
-67.6890613707
 10
286.3753931333
 20
-66.9789008103
 10
285.8943131333
 20
-66.2888499294
 10
285.3186088065
 20
-65.623383973
 10
284.6520138163
 20
-64.986818743
 10
283.8988512872
 20
-64.3832826093
 10
283.064005767
 20
-63.8166897352
 10
282.1528915493
 20
-63.2907146931
 10
281.1714175595
 20
-62.8087686328
 10
280.125949033
 20
-62.3739771595
 10
279.0232662343
 20
-61.9891600627
 10
277.8705204847
 20
-61.6568130291
 10
276.6751877825
 20
-61.3790914565
 10
275.445020319
 20
-61.1577964761
 10
274.1879962024
 20
-60.9943632707
 10
272.9122677164
 20
-60.8898517673
 10
271.6261084497
 20
-60.8449397631
 10
270.3378596387
 20
-60.8599185297
 10
269.0558760712
 20
-60.934690924
 10
267.7884719028
 20
-61.0687720185
 10
266.5438667357
 20
-61.2612922457
 10
265.3301323121
 20
-61.511003038
 10
264.1551401654
 20
-61.8162849253
 10
263.0265105706
 20
-62.1751580373
 10
261.9515631237
 20
-62.5852949441
 10
260.9372692713
 20
-63.0440357505
 10
259.9902070984
 20
-63.5484053464
  0
LWPOLYLINE
  5
122
330
1F
100
AcDbEntity
  8
0
  6
Continuous
 62
     7
370
    25
100
AcDbPolyline
 90
       52
 70
   128
 43
0.0
 10
240.1912172252
 20
-49.6681404448
 10
240.2287337883
 20
-48.9440794615
 10
240.3407147646
 20
-48.187678803
 10
240.5254626367
 20
-47.4104047321
 10
240.7801768153
 20
-46.6240399315
 10
241.1009960929
 20
-45.84050489
 10
241.4830571764
 20
-45.0716772002
 10
241.9205684092
 20
-44.329211506
 10
242.406897567
 20
-43.6243628306
 10
242.9346723955
 20
-42.9678159615
 10
243.4958923662
 20
-42.3695234798
 10
244.0820499565
 20
-41.8385548899
 10
244.6842596148
 20
-41.3829591342
 10
245.2933924566
 20
-41.00964258
 10
245.9002146489
 20
-40.7242643258
 10
246.4955273858
 20
-40.5311504149
 10
247.070306333
 20
-40.4332282574
 10
247.6158384277
 20
-40.4319822535
 10
248.1238539592
 20
-40.5274312911
 10
248.5866519301
 20
-40.7181284603
 10
248.9972167949
 20
-41.0011829864
 10
249.3493248086
 20
-41.3723040512
 10
249.6376383727
 20
-41.8258658377
 10
249.8577869476
 20
-42.3549928115
 10
250.0064333051
 20
-42.9516639472
 10
250.081324118
 20
-43.6068343184
 10
250.081324118
 20
-44.3105722103
 10
250.0064333051
 20
-45.0522096736
 10
249.8577869476
 20
-45.8205042406
 10
249.6376383727
 20
-46.6038093486
 10
249.3493248086
 20
-47.3902508907
 10
248.9972167949
 20
-48.1679072148
 10
248.5866519301
 20
-48.9249898437
 10
248.1238539592
 20
-49.6500221764
 10
247.6158384277
 20
-50.3320134619
 10
247.070306333
 20
-50.9606254075
 10
246.4955273858
 20
-51.5263288969
 10
245.9002146489
 20
-52.0205484417
 10
245.2933924566
 20
-52.4357921775
 10
244.6842596148
 20
-52.7657654325
 10
244.0820499565
 20
-53.0054661485
 10
243.4958923662
 20
-53.151260707
 10
242.9346723955
 20
-53.2009390112
 10
242.406897567
 20
-53.1537479885
 10
241.9205684092
 20
-53.0104030067
 10
241.4830571764
 20
-52.7730770297
 10
241.1009960929
 20
-52.4453676774
 10
240.7801768153
 20
-52.0322426895
 10
240.5254626367
 20
-51.5399646196
 10
240.3407147646
 20
-50.9759959016
 10
240.2287337883
 20
-50.3488857263
 10
240.1912172252
 20
-49.6681404448
  0
LWPOLYLINE
  5
123
330
1F
100
AcDbEntity
  8
0
  6
Continuous
 62
     7
370
    25
100
AcDbPolyline
 90
       44
 70
   128
 43
0.0
 10
241.6054307876
 20
-48.851732333
 10
241.6431076711
 20
-48.2355354525
 10
241.7553353042
 20
-47.588970935
 10
241.9397217498
 20
-46.9258191807
 10
242.1923371309
 20
-46.2602141177
 10
242.5077973892
 20
-45.6063419625
 10
242.8793790371
 20
-44.9781388648
 10
243.2991624567
 20
-44.3889938831
 10
243.7582006934
 20
-43.8514636196
 10
244.2467101441
 20
-43.3770045988
 10
244.754279078
 20
-42.975729091
 10
245.2700895443
 20
-42.6561895869
 10
245.7831479387
 20
-42.4251965163
 10
246.2825193121
 20
-42.2876730955
 10
246.7575604308
 20
-42.2465503974
 10
247.1981466179
 20
-42.3027048809
 10
247.5948875439
 20
-42.4549397107
 10
247.9393273648
 20
-42.7000102658
 10
248.2241249436
 20
-43.0326932926
 10
248.4432103146
 20
-43.4458982301
 10
248.5919140534
 20
-43.9308183324
 10
248.6670667979
 20
-44.4771183695
 10
248.6670667979
 20
-45.0731549045
 10
248.5919140534
 20
-45.7062244534
 10
248.4432103146
 20
-46.362834238
 10
248.2241249436
 20
-47.0289897606
 10
247.9393273648
 20
-47.6904930729
 10
247.5948875439
 20
-48.3332453801
 10
247.1981466179
 20
-48.9435475329
 10
246.7575604308
 20
-49.5083920003
 10
246.2825193121
 20
-50.0157401033
 10
245.7831479387
 20
-50.4547785977
 10
245.2700895443
 20
-50.8161501404
 10
244.754279078
 20
-51.0921527244
 10
244.2467101441
 20
-51.2769038336
 10
243.7582006934
 20
-51.3664658191
 10
243.2991624567
 20
-51.3589298225
 10
242.8793790371
 20
-51.2544564605
 10
242.5077973892
 20
-51.0552724015
 10
242.1923371309
 20
-50.7656229079
 10
241.9397217498
 20
-50.3916813558
 10
241.7553353042
 20
-49.94141766
 10
241.6431076711
 20
-49.4244284097
 10
241.6054307876
 20
-48.851732333
  0
LWPOLYLINE
  5
124
330
1F
100
AcDbEntity
  8
0
  6
Continuous
 62
     7
370
    25
100
AcDbPolyline
 90
       92
 70
   128
 43
0.0
 10
284.7439950738
 20
36.477641327
 10
285.5399642064
 20
36.0179957072
 10
286.4062732717
 20
35.5177443872
 10
287.3387939126
 20
34.9792712924
 10
288.3330822436
 20
34.4051424923
 10
289.384400028
 20
33.7980939721
 10
290.4877372577
 20
33.1610185944
 10
291.6378360284
 20
32.4969523136
 10
292.8292155957
 20
31.8090597078
 10
294.0561984935
 20
31.1006188986
 10
295.3129375894
 20
30.3750059291
 10
296.5934439493
 20
29.6356786755
 10
297.8916153773
 20
28.8861603689
 10
299.2012654954
 20
28.1300228053
 10
300.5161532243
 20
27.3708693246
 10
301.8300125252
 20
26.6123176388
 10
303.1365822602
 20
25.8579825922
 10
304.4296360296
 20
25.1114589347
 10
305.7030118432
 20
24.3763041916
 10
306.9506414853
 20
23.6560217099
 10
308.1665794327
 20
22.9540439639
 10
309.3450311872
 20
22.2737161969
 10
310.4803808896
 20
21.6182804808
 10
311.5672180815
 20
20.9908602652
 10
312.6003634887
 20
20.3944454931
 10
313.5748937029
 20
19.8318783525
 10
314.4861646438
 20
19.305839732
 10
315.3298336904
 20
18.8188364453
 10
316.1018803754
 20
18.3731892847
 10
316.7986255449
 20
17.971021962
 10
317.4167488908
 20
17.6142509875
 10
317.9533047738
 20
17.3045765375
 10
318.4057362609
 20
17.0434743517
 10
318.77188731
 20
16.8321887009
 10
319.0500130445
 20
16.6717264575
 10
319.2387880687
 20
16.5628522971
 10
319.3373127836
 20
16.5060850548
 10
319.3451176742
 20
16.5016952522
 10
319.2621655465
 20
16.5497038087
 10
319.0888517051
 20
16.6498819418
 10
318.8260020696
 20
16.8017522571
 10
318.4748692381
 20
17.0045910232
 10
318.0371265184
 20
17.2574316211
 10
317.5148599539
 20
17.5590691502
 10
316.9105583828
 20
17.9080661703
 10
316.2271015771
 20
18.3027595518
 10
315.4677465197
 20
18.7412684008
 10
314.6361118834
 20
19.221503023
 10
313.7361607859
 20
19.7411748818
 10
312.772181904
 20
20.297807504
 10
311.7487690361
 20
20.8887482818
 10
310.6707992106
 20
21.5111811133
 10
309.5434094445
 20
22.1621398225
 10
308.3719722636
 20
22.8385222947
 10
307.1620700994
 20
23.5371052594
 10
305.9194686868
 20
24.2545596507
 10
304.6500895874
 20
24.9874664717
 10
303.3599819706
 20
25.7323330876
 10
302.0552937868
 20
26.4856098698
 10
300.7422424693
 20
27.2437071114
 10
299.4270853055
 20
28.0030121337
 10
298.1160896184
 20
28.7599065026
 10
296.8155028993
 20
29.5107832716
 10
295.5315230363
 20
30.2520641712
 10
294.2702687782
 20
30.9802166601
 10
293.0377505758
 20
31.6917707602
 10
291.8398419397
 20
32.3833355921
 10
290.68225145
 20
33.0516155346
 10
289.5704955526
 20
33.6934259292
 10
288.5098722706
 20
34.3057082573
 10
287.5054359571
 20
34.8855447147
 10
286.5619732083
 20
35.4301721166
 10
285.6839800541
 20
35.9369950654
 10
284.8756405315
 20
36.403598319
 10
284.1408067466
 20
36.8277583004
 10
283.482980517
 20
37.2074536941
 10
282.9052966841
 20
37.5408750787
 10
282.4105081746
 20
37.8264335493
 10
282.0009728811
 20
38.0627682899
 10
281.6786424257
 20
38.2487530578
 10
281.4450528598
 20
38.3835015508
 10
281.301317344
 20
38.4663716311
 10
281.2481208436
 20
38.4969683849
 10
281.2857168642
 20
38.4751460049
 10
281.4139262435
 20
38.4010084845
 10
281.6321380054
 20
38.2749091228
 10
281.9393122716
 20
38.0974488408
 10
282.3339852169
 20
37.8694733174
 10
282.8142760448
 20
37.5920689599
 10
283.3778959508
 20
37.2665577263
 10
284.0221590295
 20
36.8944908259
 10
284.7439950738
 20
36.477641327
  0
SPLINE
  5
125
330
1F
100
AcDbEntity
  8
0
  6
Continuous
 62
     7
370
    25
100
AcDbSpline
210
0.0
220
0.0
230
1.0
 70
     8
 71
     3
 72
    27
 73
    23
 74
     0
 42
0.00000001
 43
0.00000001
 40
0.0
 40
0.0
 40
0.0
 40
0.0
 40
0.0157000231842808
 40
0.0684438746479279
 40
0.1186962573176388
 40
0.17032653657728
 40
0.2221158163518181
 40
0.2752982012785052
 40
0.329019424944434
 40
0.3843276654462772
 40
0.4373770244042616
 40
0.4921182847423841
 40
0.5427022293672814
 40
0.5947810487289211
 40
0.6450442748854937
 40
0.696649072854935
 40
0.7491154183844507
 40
0.8030184987459382
 40
0.856889843909202
 40
0.9124075564457239
 40
0.9647543047898115
 40
1.0
 40
1.0
 40
1.0
 40
1.0
 10
276.2587011900877
 20
21.76921951349672
 30
0.0
 10
276.3125413186762
 20
21.73174967788779
 30
0.0
 10
276.5472560683863
 20
21.56840082792796
 30
0.0
 10
277.089998881841
 20
21.4254737858912
 30
0.0
 10
277.8662567171572
 20
21.34901241099599
 30
0.0
 10
278.7256962795914
 20
21.42982379151387
 30
0.0
 10
279.6488386996509
 20
21.66216544693819
 30
0.0
 10
280.6038477610415
 20
22.05383598262275
 30
0.0
 10
281.5639114067802
 20
22.61231942537945
 30
0.0
 10
282.4705188460235
 20
23.3254167556004
 30
0.0
 10
283.2923922856208
 20
24.18531574010599
 30
0.0
 10
283.9716811192471
 20
25.1392398453136
 30
0.0
 10
284.5058598555734
 20
26.17436349997028
 30
0.0
 10
284.8785524515484
 20
27.23308708816716
 30
0.0
 10
285.1026640668617
 20
28.31817459325935
 30
0.0
 10
285.1805617038321
 20
29.39375804750878
 30
0.0
 10
285.1162775715823
 20
30.44960893553428
 30
0.0
 10
284.9147114161824
 20
31.44106411920555
 30
0.0
 10
284.5851497754361
 20
32.33914690149827
 30
0.0
 10
284.14809651209
 20
33.07420297538884
 30
0.0
 10
283.6914342597539
 20
33.59766965917429
 30
0.0
 10
283.3674222038231
 20
33.78251835604539
 30
0.0
 10
283.2370453162246
 20
33.85689829757406
 30
0.0
  0
LWPOLYLINE
  5
126
330
1F
100
AcDbEntity
  8
0
  6
Continuous
 62
     7
370
    25
100
AcDbPolyline
 90
       79
 70
   128
 43
0.0
 10
288.986635761
 20
34.0284169915
 10
288.3795900817
 20
34.3789778097
 10
287.8498550677
 20
34.6849073473
 10
287.4008662538
 20
34.944221534
 10
287.0355355047
 20
35.1552386176
 10
286.7562321304
 20
35.3165900716
 10
286.5647675207
 20
35.4272294697
 10
286.4623833968
 20
35.486439273
 10
286.4497437593
 20
35.4938354833
 10
286.5269305809
 20
35.4493701332
 10
286.6934432754
 20
35.3533315976
 10
286.9482019443
 20
35.2063427233
 10
287.2895543797
 20
35.0093567896
 10
287.7152867802
 20
34.7636513257
 10
288.2226381077
 20
34.4708198259
 10
288.8083179941
 20
34.1327614149
 10
289.4685280808
 20
33.7516685312
 10
290.1989866519
 20
33.3300127084
 10
290.9949564033
 20
32.8705285462
 10
291.8512751657
 20
32.3761959759
 10
292.7623893834
 20
31.8502209337
 10
293.722390131
 20
31.2960145697
 10
294.7250514353
 20
30.7171711248
 10
295.763870653
 20
30.117444621
 10
296.8321106428
 20
29.5007245146
 10
297.9228434585
 20
28.8710104722
 10
299.0289952792
 20
28.2323864311
 10
300.1433922859
 20
27.5889941132
 10
301.2588071863
 20
26.9450061646
 10
302.3680060869
 20
26.3045990942
 10
303.4637954072
 20
25.6719261877
 10
304.5390685328
 20
25.0510905716
 10
305.586851905
 20
24.4461186031
 10
306.6003502465
 20
23.8609337576
 10
307.5729906317
 20
23.2993311834
 10
308.4984651144
 20
22.7649530886
 10
309.3707716375
 20
22.2612651203
 10
310.1842529584
 20
21.7915338882
 10
310.9336333387
 20
21.3588057796
 10
311.6140527589
 20
20.9658872024
 10
312.2210984381
 20
20.6153263842
 10
312.7508334521
 20
20.3093968466
 10
313.1998222661
 20
20.05008266
 10
313.5651530152
 20
19.8390655763
 10
313.8444563894
 20
19.6777141223
 10
314.0359209992
 20
19.5670747242
 10
314.138305123
 20
19.5078649209
 10
314.1509447606
 20
19.5004687106
 10
314.073757939
 20
19.5449340607
 10
313.9072452444
 20
19.6409725963
 10
313.6524865756
 20
19.7879614706
 10
313.3111341402
 20
19.9849474044
 10
312.8854017397
 20
20.2306528682
 10
312.3780504122
 20
20.523484368
 10
311.7923705257
 20
20.861542779
 10
311.1321604391
 20
21.2426356627
 10
310.401701868
 20
21.6642914855
 10
309.6057321166
 20
22.1237756477
 10
308.7494133541
 20
22.6181082181
 10
307.8382991365
 20
23.1440832602
 10
306.8782983889
 20
23.6982896242
 10
305.8756370846
 20
24.2771330691
 10
304.8368178669
 20
24.876859573
 10
303.7685778771
 20
25.4935796793
 10
302.6778450614
 20
26.1232937217
 10
301.5716932407
 20
26.7619177628
 10
300.457296234
 20
27.4053100807
 10
299.3418813335
 20
28.0492980293
 10
298.2326824329
 20
28.6897050997
 10
297.1368931127
 20
29.3223780062
 10
296.0616199871
 20
29.9432136223
 10
295.0138366149
 20
30.5481855908
 10
294.0003382734
 20
31.1333704363
 10
293.0276978882
 20
31.6949730105
 10
292.1022234055
 20
32.2293511053
 10
291.2299168824
 20
32.7330390736
 10
290.4164355615
 20
33.2027703057
 10
289.6670551812
 20
33.6354984143
 10
288.986635761
 20
34.0284169915
  0
LWPOLYLINE
  5
127
330
1F
100
AcDbEntity
  8
0
  6
Continuous
 62
     7
370
    25
100
AcDbPolyline
 90
       52
 70
   128
 43
0.0
 10
264.1876458877
 20
31.0830197619
 10
264.2251624508
 20
31.8070807451
 10
264.3371434271
 20
32.5634814037
 10
264.5218912993
 20
33.3407554745
 10
264.7766054778
 20
34.1271202751
 10
265.0974247555
 20
34.9106553166
 10
265.479485839
 20
35.6794830065
 10
265.9169970718
 20
36.4219487007
 10
266.4033262295
 20
37.126797376
 10
266.931101058
 20
37.7833442452
 10
267.4923210287
 20
38.3816367268
 10
268.0784786191
 20
38.9126053168
 10
268.6806882774
 20
39.3682010724
 10
269.2898211192
 20
39.7415176266
 10
269.8966433114
 20
40.0268958809
 10
270.4919560483
 20
40.2200097917
 10
271.0667349956
 20
40.3179319492
 10
271.6122670902
 20
40.3191779532
 10
272.1202826218
 20
40.2237289155
 10
272.5830805927
 20
40.0330317463
 10
272.9936454574
 20
39.7499772203
 10
273.3457534711
 20
39.3788561555
 10
273.6340670353
 20
38.925294369
 10
273.8542156101
 20
38.3961673951
 10
274.0028619676
 20
37.7994962595
 10
274.0777527806
 20
37.1443258882
 10
274.0777527806
 20
36.4405879964
 10
274.0028619676
 20
35.698950533
 10
273.8542156101
 20
34.9306559661
 10
273.6340670353
 20
34.1473508581
 10
273.3457534711
 20
33.360909316
 10
272.9936454574
 20
32.5832529919
 10
272.5830805927
 20
31.826170363
 10
272.1202826218
 20
31.1011380302
 10
271.6122670902
 20
30.4191467447
 10
271.0667349956
 20
29.7905347991
 10
270.4919560483
 20
29.2248313098
 10
269.8966433114
 20
28.7306117649
 10
269.2898211192
 20
28.3153680292
 10
268.6806882774
 20
27.9853947742
 10
268.0784786191
 20
27.7456940581
 10
267.4923210287
 20
27.5998994996
 10
266.931101058
 20
27.5502211955
 10
266.4033262295
 20
27.5974122182
 10
265.9169970718
 20
27.7407571999
 10
265.479485839
 20
27.9780831769
 10
265.0974247555
 20
28.3057925292
 10
264.7766054778
 20
28.7189175172
 10
264.5218912993
 20
29.211195587
 10
264.3371434271
 20
29.775164305
 10
264.2251624508
 20
30.4022744803
 10
264.1876458877
 20
31.0830197619
  0
LWPOLYLINE
  5
128
330
1F
100
AcDbEntity
  8
0
  6
Continuous
 62
     7
370
    25
100
AcDbPolyline
 90
       44
 70
   128
 43
0.0
 10
265.6018594501
 20
31.8994278737
 10
265.6395363336
 20
32.5156247541
 10
265.7517639667
 20
33.1621892716
 10
265.9361504123
 20
33.825341026
 10
266.1887657934
 20
34.4909460889
 10
266.5042260518
 20
35.1448182441
 10
266.8758076996
 20
35.7730213418
 10
267.2955911193
 20
36.3621663236
 10
267.754629356
 20
36.899696587
 10
268.2431388067
 20
37.3741556078
 10
268.7507077405
 20
37.7754311156
 10
269.2665182069
 20
38.0949706197
 10
269.7795766012
 20
38.3259636903
 10
270.2789479747
 20
38.4634871111
 10
270.7539890933
 20
38.5046098093
 10
271.1945752805
 20
38.4484553257
 10
271.5913162065
 20
38.2962204959
 10
271.9357560273
 20
38.0511499409
 10
272.2205536062
 20
37.7184669141
 10
272.4396389772
 20
37.3052619766
 10
272.5883427159
 20
36.8203418742
 10
272.6634954604
 20
36.2740418372
 10
272.6634954604
 20
35.6780053022
 10
272.5883427159
 20
35.0449357532
 10
272.4396389772
 20
34.3883259687
 10
272.2205536062
 20
33.722170446
 10
271.9357560273
 20
33.0606671338
 10
271.5913162065
 20
32.4179148265
 10
271.1945752805
 20
31.8076126738
 10
270.7539890933
 20
31.2427682063
 10
270.2789479747
 20
30.7354201034
 10
269.7795766012
 20
30.2963816089
 10
269.2665182069
 20
29.9350100662
 10
268.7507077405
 20
29.6590074823
 10
268.2431388067
 20
29.474256373
 10
267.754629356
 20
29.3846943876
 10
267.2955911193
 20
29.3922303842
 10
266.8758076996
 20
29.4967037461
 10
266.5042260518
 20
29.6958878051
 10
266.1887657934
 20
29.9855372987
 10
265.9361504123
 20
30.3594788509
 10
265.7517639667
 20
30.8097425466
 10
265.6395363336
 20
31.326731797
 10
265.6018594501
 20
31.8994278737
  0
LWPOLYLINE
  5
129
330
1F
100
AcDbEntity
  8
0
  6
Continuous
 62
     1
370
    25
100
AcDbPolyline
 90
       36
 70
   128
 43
0.0
 10
255.7475664113
 20
-23.8923145626
 10
256.8578832885
 20
-23.2941383937
 10
258.0370420883
 20
-22.7416089276
 10
259.2794235822
 20
-22.2373592187
 10
260.5791072563
 20
-21.7837922466
 10
261.9298995263
 20
-21.3830694644
 10
263.3253632518
 20
-21.0371004987
 10
264.7588484126
 20
-20.7475340491
 10
266.2235237991
 20
-20.5157500316
 10
267.7124095662
 20
-20.3428530027
 10
269.2184104951
 20
-20.2296668955
 10
270.7343498055
 20
-20.1767310931
 10
272.2530033563
 20
-20.184297859
 10
273.7671340717
 20
-20.252331134
 10
275.2695264293
 20
-20.3805067085
 10
276.7530208454
 20
-20.5682137675
 10
278.2105477935
 20
-20.8145578016
 10
279.6351614939
 20
-21.118364869
 10
281.0200730135
 20
-21.4781871909
 10
282.3586826184
 20
-21.89231005
 10
283.6446112241
 20
-22.3587599622
 10
284.8717307952
 20
-22.8753140813
 10
286.0341935482
 20
-23.4395107918
 10
287.1264598186
 20
-24.0486614393
 10
288.1433244602
 20
-24.6998631436
 10
289.07994165
 20
-25.3900126321
 10
289.9318479804
 20
-26.1158210281
 10
290.69498373
 20
-26.873829524
 10
291.3657122092
 20
-27.6604258643
 10
291.9408370915
 20
-28.4718615591
 10
292.4176176449
 20
-29.3042697478
 10
292.7937817929
 20
-30.1536836263
 10
293.0675369421
 20
-31.0160553507
 10
293.2375785244
 20
-31.887275327
 10
293.3030962144
 20
-32.7631917953
 10
293.3039155974
 20
-32.8728037926
  0
LWPOLYLINE
  5
12A
330
1F
100
AcDbEntity
  8
0
  6
Continuous
 62
     1
370
    25
100
AcDbPolyline
 90
       13
 70
   128
 43
0.0
 10
249.3039155974
 20
-32.8728037926
 10
249.3112896785
 20
-32.5440004597
 10
249.4029871133
 20
-31.6688673235
 10
249.5990524459
 20
-30.7994714929
 10
249.8985513357
 20
-29.9399560349
 10
250.3000565342
 20
-29.0944169321
 10
250.8016546863
 20
-28.2668835633
 10
251.4009554482
 20
-27.4612995019
 10
252.0951028791
 20
-26.6815037228
 10
252.8807890502
 20
-25.9312123081
 10
253.7542698091
 20
-25.214000738
 10
254.7113826223
 20
-24.5332868523
 10
255.7475664113
 20
-23.8923145626
  0
LWPOLYLINE
  5
12B
330
1F
100
AcDbEntity
  8
0
  6
Continuous
 62
     1
370
    25
100
AcDbPolyline
 90
       38
 70
   128
 43
0.0
 10
261.9607698469
 20
-2.9840622105
 10
262.7567389794
 20
-3.4437078303
 10
263.6230480448
 20
-3.9439591503
 10
264.5555686857
 20
-4.4824322451
 10
265.5498570167
 20
-5.0565610452
 10
266.6011748011
 20
-5.6636095654
 10
267.7045120308
 20
-6.3006849431
 10
268.8546108015
 20
-6.964751224
 10
270.0459903688
 20
-7.6526438298
 10
271.2729732666
 20
-8.3610846389
 10
272.5297123624
 20
-9.0866976084
 10
273.8102187224
 20
-9.826024862
 10
275.1083901504
 20
-10.5755431686
 10
276.4180402685
 20
-11.3316807322
 10
277.7329279974
 20
-12.0908342129
 10
279.0467872983
 20
-12.8493858987
 10
280.3533570333
 20
-13.6037209453
 10
281.6464108026
 20
-14.3502446028
 10
282.9197866162
 20
-15.0853993459
 10
284.1674162584
 20
-15.8056818276
 10
285.3833542058
 20
-16.5076595737
 10
286.5618059603
 20
-17.1879873406
 10
287.6971556627
 20
-17.8434230567
 10
288.7839928546
 20
-18.4708432723
 10
289.8171382618
 20
-19.0672580445
 10
290.791668476
 20
-19.629825185
 10
291.7029394168
 20
-20.1558638055
 10
292.5466084634
 20
-20.6428670922
 10
293.3186551485
 20
-21.0885142528
 10
294.015400318
 20
-21.4906815755
 10
294.6335236638
 20
-21.84745255
 10
295.1700795469
 20
-22.157127
 10
295.622511034
 20
-22.4182291858
 10
295.988662083
 20
-22.6295148366
 10
296.2667878175
 20
-22.78997708
 10
296.4555628418
 20
-22.8988512404
 10
296.5540875567
 20
-22.9556184828
 10
296.5696779023
 20
-22.9645514648
  0
LWPOLYLINE
  5
12C
330
1F
100
AcDbEntity
  8
0
  6
Continuous
 62
     1
370
    25
100
AcDbPolyline
 90
       10
 70
   128
 43
0.0
 10
258.4645601637
 20
-0.9645514163
 10
258.5024916372
 20
-0.9865575327
 10
258.6307010165
 20
-1.060695053
 10
258.8489127785
 20
-1.1867944147
 10
259.1560870447
 20
-1.3642546967
 10
259.5507599899
 20
-1.5922302201
 10
260.0310508178
 20
-1.8696345776
 10
260.5946707239
 20
-2.1951458112
 10
261.2389338026
 20
-2.5672127116
 10
261.9607698469
 20
-2.9840622105
  0
ENDSEC
  0
SECTION
  2
OBJECTS
  0
DICTIONARY
  5
C
330
0
100
AcDbDictionary
281
     1
  3
ACAD_GROUP
350
D
  3
ACAD_LAYOUT
350
1A
  3
ACAD_MLINESTYLE
350
17
  3
ACAD_PLOTSETTINGS
350
19
  3
ACAD_PLOTSTYLENAME
350
E
  3
ACAD_SCALELIST
350
47
  3
DWGPROPS
350
12D
  0
DICTIONARY
  5
D
102
{ACAD_REACTORS
330
C
102
}
330
C
100
AcDbDictionary
281
     1
  0
DICTIONARY
  5
1A
102
{ACAD_REACTORS
330
C
102
}
330
C
100
AcDbDictionary
281
     1
  3
Layout1
350
1E
  3
Layout2
350
26
  3
Model
350
22
  0
DICTIONARY
  5
17
102
{ACAD_REACTORS
330
C
102
}
330
C
100
AcDbDictionary
281
     1
  3
Standard
350
18
  0
DICTIONARY
  5
19
102
{ACAD_REACTORS
330
C
102
}
330
C
100
AcDbDictionary
281
     1
  0
ACDBDICTIONARYWDFLT
  5
E
102
{ACAD_REACTORS
330
C
102
}
330
C
100
AcDbDictionary
281
     1
  3
Normal
350
F
100
AcDbDictionaryWithDefault
340
F
  0
DICTIONARY
  5
47
102
{ACAD_REACTORS
330
C
102
}
330
C
100
AcDbDictionary
281
     1
  3
A0
350
48
  3
A1
350
49
  3
A2
350
4A
  3
A3
350
4B
  3
A4
350
4C
  3
A5
350
4D
  3
A6
350
4E
  3
A7
350
4F
  3
A8
350
50
  3
A9
350
51
  3
B0
350
52
  3
B1
350
53
  3
B2
350
54
  3
B3
350
55
  3
B4
350
56
  3
B5
350
57
  3
B6
350
58
  3
B7
350
59
  3
B8
350
5A
  3
B9
350
5B
  3
C0
350
5C
  3
C1
350
5D
  3
C2
350
5E
  3
C3
350
5F
  3
C4
350
60
  3
C5
350
61
  3
C6
350
62
  3
C7
350
63
  3
C8
350
64
  3
C9
350
65
  3
D0
350
66
  3
D1
350
67
  3
D2
350
68
  0
XRECORD
  5
12D
102
{ACAD_REACTORS
330
C
102
}
330
C
100
AcDbXrecord
280
     1
  1
DWGPROPS COOKIE
  2

  3

  4

  6

  7

  8
b.kav
  9

300
=
301
=
302
=
303
=
304
=
305
=
306
=
307
=
308
=
309
=
 40
0.0
 41
2459741.478147986
 42
2459741.47814816
  1

 90
        0
  0
LAYOUT
  5
1E
102
{ACAD_REACTORS
330
1A
102
}
330
1A
100
AcDbPlotSettings
  1

  2
none_device
  4

  6

 40
0.0
 41
0.0
 42
0.0
 43
0.0
 44
0.0
 45
0.0
 46
0.0
 47
0.0
 48
0.0
 49
0.0
140
0.0
141
0.0
142
1.0
143
1.0
 70
   688
 72
     1
 73
     0
 74
     5
  7

 75
    16
147
1.0
148
0.0
149
0.0
100
AcDbLayout
  1
Layout1
 70
     1
 71
     1
 10
0.0
 20
0.0
 11
420.0
 21
297.0
 12
0.0
 22
0.0
 32
0.0
 14
1.0000000000E+20
 24
1.0000000000E+20
 34
1.0000000000E+20
 15
-1.0000000000E+20
 25
-1.0000000000E+20
 35
-1.0000000000E+20
146
0.0
 13
0.0
 23
0.0
 33
0.0
 16
1.0
 26
0.0
 36
0.0
 17
0.0
 27
1.0
 37
0.0
 76
     0
330
1B
  0
LAYOUT
  5
26
102
{ACAD_REACTORS
330
1A
102
}
330
1A
100
AcDbPlotSettings
  1

  2
none_device
  4

  6

 40
0.0
 41
0.0
 42
0.0
 43
0.0
 44
0.0
 45
0.0
 46
0.0
 47
0.0
 48
0.0
 49
0.0
140
0.0
141
0.0
142
1.0
143
1.0
 70
   688
 72
     1
 73
     0
 74
     5
  7

 75
    16
147
1.0
148
0.0
149
0.0
100
AcDbLayout
  1
Layout2
 70
     1
 71
     2
 10
0.0
 20
0.0
 11
0.0
 21
0.0
 12
0.0
 22
0.0
 32
0.0
 14
0.0
 24
0.0
 34
0.0
 15
0.0
 25
0.0
 35
0.0
146
0.0
 13
0.0
 23
0.0
 33
0.0
 16
1.0
 26
0.0
 36
0.0
 17
0.0
 27
1.0
 37
0.0
 76
     0
330
23
  0
LAYOUT
  5
22
102
{ACAD_REACTORS
330
1A
102
}
330
1A
100
AcDbPlotSettings
  1

  2
none_device
  4
Letter_(8.50_x_11.00_Inches)
  6

 40
6.35
 41
6.35
 42
6.35000508
 43
6.35000508
 44
215.9
 45
279.4
 46
0.0
 47
0.0
 48
0.0
 49
0.0
140
0.0
141
0.0
142
1.0
143
1.0
 70
  1712
 72
     1
 73
     0
 74
     0
  7

 75
     0
147
1.0
148
0.0
149
0.0
100
AcDbLayout
  1
Model
 70
     1
 71
     0
 10
0.0
 20
0.0
 11
279.4
 21
215.9
 12
0.0
 22
0.0
 32
0.0
 14
0.0
 24
0.0
 34
0.0
 15
279.4
 25
215.9
 35
0.0
146
0.0
 13
0.0
 23
0.0
 33
0.0
 16
1.0
 26
0.0
 36
0.0
 17
0.0
 27
1.0
 37
0.0
 76
     0
330
1F
331
29
  0
MLINESTYLE
  5
18
102
{ACAD_REACTORS
330
17
102
}
330
17
100
AcDbMlineStyle
  2
Standard
 70
     0
  3

 62
   256
 51
90.0
 52
90.0
 71
     2
 49
0.5
 62
   256
  6
BYLAYER
 49
-0.5
 62
   256
  6
BYLAYER
  0
ACDBPLACEHOLDER
  5
F
102
{ACAD_REACTORS
330
E
102
}
330
E
  0
SCALE
  5
48
102
{ACAD_REACTORS
330
47
102
}
330
47
100
AcDbScale
 70
     0
300
1:1
140
1.0
141
1.0
290
     1
  0
SCALE
  5
49
102
{ACAD_REACTORS
330
47
102
}
330
47
100
AcDbScale
 70
     0
300
1:2
140
1.0
141
2.0
290
     0
  0
SCALE
  5
4A
102
{ACAD_REACTORS
330
47
102
}
330
47
100
AcDbScale
 70
     0
300
1:4
140
1.0
141
4.0
290
     0
  0
SCALE
  5
4B
102
{ACAD_REACTORS
330
47
102
}
330
47
100
AcDbScale
 70
     0
300
1:5
140
1.0
141
5.0
290
     0
  0
SCALE
  5
4C
102
{ACAD_REACTORS
330
47
102
}
330
47
100
AcDbScale
 70
     0
300
1:8
140
1.0
141
8.0
290
     0
  0
SCALE
  5
4D
102
{ACAD_REACTORS
330
47
102
}
330
47
100
AcDbScale
 70
     0
300
1:10
140
1.0
141
10.0
290
     0
  0
SCALE
  5
4E
102
{ACAD_REACTORS
330
47
102
}
330
47
100
AcDbScale
 70
     0
300
1:16
140
1.0
141
16.0
290
     0
  0
SCALE
  5
4F
102
{ACAD_REACTORS
330
47
102
}
330
47
100
AcDbScale
 70
     0
300
1:20
140
1.0
141
20.0
290
     0
  0
SCALE
  5
50
102
{ACAD_REACTORS
330
47
102
}
330
47
100
AcDbScale
 70
     0
300
1:30
140
1.0
141
30.0
290
     0
  0
SCALE
  5
51
102
{ACAD_REACTORS
330
47
102
}
330
47
100
AcDbScale
 70
     0
300
1:40
140
1.0
141
40.0
290
     0
  0
SCALE
  5
52
102
{ACAD_REACTORS
330
47
102
}
330
47
100
AcDbScale
 70
     0
300
1:50
140
1.0
141
50.0
290
     0
  0
SCALE
  5
53
102
{ACAD_REACTORS
330
47
102
}
330
47
100
AcDbScale
 70
     0
300
1:100
140
1.0
141
100.0
290
     0
  0
SCALE
  5
54
102
{ACAD_REACTORS
330
47
102
}
330
47
100
AcDbScale
 70
     0
300
2:1
140
2.0
141
1.0
290
     0
  0
SCALE
  5
55
102
{ACAD_REACTORS
330
47
102
}
330
47
100
AcDbScale
 70
     0
300
4:1
140
4.0
141
1.0
290
     0
  0
SCALE
  5
56
102
{ACAD_REACTORS
330
47
102
}
330
47
100
AcDbScale
 70
     0
300
8:1
140
8.0
141
1.0
290
     0
  0
SCALE
  5
57
102
{ACAD_REACTORS
330
47
102
}
330
47
100
AcDbScale
 70
     0
300
10:1
140
10.0
141
1.0
290
     0
  0
SCALE
  5
58
102
{ACAD_REACTORS
330
47
102
}
330
47
100
AcDbScale
 70
     0
300
100:1
140
100.0
141
1.0
290
     0
  0
SCALE
  5
59
102
{ACAD_REACTORS
330
47
102
}
330
47
100
AcDbScale
 70
     0
300
1/128" = 1'-0"
140
0.0078125
141
12.0
290
     0
  0
SCALE
  5
5A
102
{ACAD_REACTORS
330
47
102
}
330
47
100
AcDbScale
 70
     0
300
1/64" = 1'-0"
140
0.015625
141
12.0
290
     0
  0
SCALE
  5
5B
102
{ACAD_REACTORS
330
47
102
}
330
47
100
AcDbScale
 70
     0
300
1/32" = 1'-0"
140
0.03125
141
12.0
290
     0
  0
SCALE
  5
5C
102
{ACAD_REACTORS
330
47
102
}
330
47
100
AcDbScale
 70
     0
300
1/16" = 1'-0"
140
0.0625
141
12.0
290
     0
  0
SCALE
  5
5D
102
{ACAD_REACTORS
330
47
102
}
330
47
100
AcDbScale
 70
     0
300
3/32" = 1'-0"
140
0.09375
141
12.0
290
     0
  0
SCALE
  5
5E
102
{ACAD_REACTORS
330
47
102
}
330
47
100
AcDbScale
 70
     0
300
1/8" = 1'-0"
140
0.125
141
12.0
290
     0
  0
SCALE
  5
5F
102
{ACAD_REACTORS
330
47
102
}
330
47
100
AcDbScale
 70
     0
300
3/16" = 1'-0"
140
0.1875
141
12.0
290
     0
  0
SCALE
  5
60
102
{ACAD_REACTORS
330
47
102
}
330
47
100
AcDbScale
 70
     0
300
1/4" = 1'-0"
140
0.25
141
12.0
290
     0
  0
SCALE
  5
61
102
{ACAD_REACTORS
330
47
102
}
330
47
100
AcDbScale
 70
     0
300
3/8" = 1'-0"
140
0.375
141
12.0
290
     0
  0
SCALE
  5
62
102
{ACAD_REACTORS
330
47
102
}
330
47
100
AcDbScale
 70
     0
300
1/2" = 1'-0"
140
0.5
141
12.0
290
     0
  0
SCALE
  5
63
102
{ACAD_REACTORS
330
47
102
}
330
47
100
AcDbScale
 70
     0
300
3/4" = 1'-0"
140
0.75
141
12.0
290
     0
  0
SCALE
  5
64
102
{ACAD_REACTORS
330
47
102
}
330
47
100
AcDbScale
 70
     0
300
1" = 1'-0"
140
1.0
141
12.0
290
     0
  0
SCALE
  5
65
102
{ACAD_REACTORS
330
47
102
}
330
47
100
AcDbScale
 70
     0
300
1-1/2" = 1'-0"
140
1.5
141
12.0
290
     0
  0
SCALE
  5
66
102
{ACAD_REACTORS
330
47
102
}
330
47
100
AcDbScale
 70
     0
300
3" = 1'-0"
140
3.0
141
12.0
290
     0
  0
SCALE
  5
67
102
{ACAD_REACTORS
330
47
102
}
330
47
100
AcDbScale
 70
     0
300
6" = 1'-0"
140
6.0
141
12.0
290
     0
  0
SCALE
  5
68
102
{ACAD_REACTORS
330
47
102
}
330
47
100
AcDbScale
 70
     0
300
1'-0" = 1'-0"
140
12.0
141
12.0
290
     0
  0
ENDSEC
  0
EOF
